ISO-10303-21;
HEADER;
/* Generated by software containing ST-Developer
 * from STEP Tools, Inc. (www.steptools.com) 
 */
/* OPTION: strings as raw bytes, not using required /X/ escapes */

FILE_DESCRIPTION(
/* description */ ('Unknown'),
/* implementation_level */ '2;1');

FILE_NAME(
/* name */ 'FL 1520 PM',
/* time_stamp */ '2018-12-10T10:34:53+01:00',
/* author */ ('Unknown'),
/* organization */ ('Unknown'),
/* preprocessor_version */ 'ST-DEVELOPER v16.7',
/* originating_system */ 'DEX',
/* authorisation */ $);

FILE_SCHEMA (('AUTOMOTIVE_DESIGN {1 0 10303 214 3 1 1}'));
ENDSEC;

DATA;
#10=PROPERTY_DEFINITION_REPRESENTATION(#14,#12);
#11=PROPERTY_DEFINITION_REPRESENTATION(#15,#13);
#12=REPRESENTATION('',(#16),#469);
#13=REPRESENTATION('',(#17),#469);
#14=PROPERTY_DEFINITION('pmi validation property','',#474);
#15=PROPERTY_DEFINITION('pmi validation property','',#474);
#16=VALUE_REPRESENTATION_ITEM('number of annotations',COUNT_MEASURE(0.));
#17=VALUE_REPRESENTATION_ITEM('number of views',COUNT_MEASURE(0.));
#18=SHAPE_REPRESENTATION_RELATIONSHIP('','',#303,#19);
#19=ADVANCED_BREP_SHAPE_REPRESENTATION('',(#301),#469);
#20=ORIENTED_EDGE('',*,*,#92,.F.);
#21=ORIENTED_EDGE('',*,*,#93,.F.);
#22=ORIENTED_EDGE('',*,*,#94,.T.);
#23=ORIENTED_EDGE('',*,*,#95,.T.);
#24=ORIENTED_EDGE('',*,*,#96,.F.);
#25=ORIENTED_EDGE('',*,*,#97,.F.);
#26=ORIENTED_EDGE('',*,*,#98,.T.);
#27=ORIENTED_EDGE('',*,*,#99,.T.);
#28=ORIENTED_EDGE('',*,*,#100,.F.);
#29=ORIENTED_EDGE('',*,*,#99,.F.);
#30=ORIENTED_EDGE('',*,*,#101,.T.);
#31=ORIENTED_EDGE('',*,*,#93,.T.);
#32=ORIENTED_EDGE('',*,*,#94,.F.);
#33=ORIENTED_EDGE('',*,*,#101,.F.);
#34=ORIENTED_EDGE('',*,*,#98,.F.);
#35=ORIENTED_EDGE('',*,*,#102,.F.);
#36=ORIENTED_EDGE('',*,*,#92,.T.);
#37=ORIENTED_EDGE('',*,*,#103,.T.);
#38=ORIENTED_EDGE('',*,*,#96,.T.);
#39=ORIENTED_EDGE('',*,*,#100,.T.);
#40=ORIENTED_EDGE('',*,*,#104,.T.);
#41=ORIENTED_EDGE('',*,*,#105,.T.);
#42=ORIENTED_EDGE('',*,*,#106,.T.);
#43=ORIENTED_EDGE('',*,*,#107,.T.);
#44=ORIENTED_EDGE('',*,*,#103,.F.);
#45=ORIENTED_EDGE('',*,*,#95,.F.);
#46=ORIENTED_EDGE('',*,*,#102,.T.);
#47=ORIENTED_EDGE('',*,*,#97,.T.);
#48=ORIENTED_EDGE('',*,*,#104,.F.);
#49=ORIENTED_EDGE('',*,*,#108,.F.);
#50=ORIENTED_EDGE('',*,*,#109,.T.);
#51=ORIENTED_EDGE('',*,*,#110,.T.);
#52=ORIENTED_EDGE('',*,*,#105,.F.);
#53=ORIENTED_EDGE('',*,*,#110,.F.);
#54=ORIENTED_EDGE('',*,*,#111,.T.);
#55=ORIENTED_EDGE('',*,*,#112,.T.);
#56=ORIENTED_EDGE('',*,*,#106,.F.);
#57=ORIENTED_EDGE('',*,*,#112,.F.);
#58=ORIENTED_EDGE('',*,*,#113,.T.);
#59=ORIENTED_EDGE('',*,*,#114,.T.);
#60=ORIENTED_EDGE('',*,*,#107,.F.);
#61=ORIENTED_EDGE('',*,*,#114,.F.);
#62=ORIENTED_EDGE('',*,*,#115,.T.);
#63=ORIENTED_EDGE('',*,*,#108,.T.);
#64=ORIENTED_EDGE('',*,*,#116,.F.);
#65=ORIENTED_EDGE('',*,*,#117,.F.);
#66=ORIENTED_EDGE('',*,*,#118,.F.);
#67=ORIENTED_EDGE('',*,*,#119,.F.);
#68=ORIENTED_EDGE('',*,*,#109,.F.);
#69=ORIENTED_EDGE('',*,*,#115,.F.);
#70=ORIENTED_EDGE('',*,*,#113,.F.);
#71=ORIENTED_EDGE('',*,*,#111,.F.);
#72=ORIENTED_EDGE('',*,*,#117,.T.);
#73=ORIENTED_EDGE('',*,*,#120,.F.);
#74=ORIENTED_EDGE('',*,*,#121,.F.);
#75=ORIENTED_EDGE('',*,*,#122,.T.);
#76=ORIENTED_EDGE('',*,*,#116,.T.);
#77=ORIENTED_EDGE('',*,*,#123,.F.);
#78=ORIENTED_EDGE('',*,*,#124,.F.);
#79=ORIENTED_EDGE('',*,*,#120,.T.);
#80=ORIENTED_EDGE('',*,*,#119,.T.);
#81=ORIENTED_EDGE('',*,*,#125,.F.);
#82=ORIENTED_EDGE('',*,*,#126,.F.);
#83=ORIENTED_EDGE('',*,*,#123,.T.);
#84=ORIENTED_EDGE('',*,*,#118,.T.);
#85=ORIENTED_EDGE('',*,*,#122,.F.);
#86=ORIENTED_EDGE('',*,*,#127,.F.);
#87=ORIENTED_EDGE('',*,*,#125,.T.);
#88=ORIENTED_EDGE('',*,*,#121,.T.);
#89=ORIENTED_EDGE('',*,*,#124,.T.);
#90=ORIENTED_EDGE('',*,*,#126,.T.);
#91=ORIENTED_EDGE('',*,*,#127,.T.);
#92=EDGE_CURVE('',#128,#129,#152,.T.);
#93=EDGE_CURVE('',#130,#128,#153,.T.);
#94=EDGE_CURVE('',#130,#131,#154,.T.);
#95=EDGE_CURVE('',#131,#129,#155,.T.);
#96=EDGE_CURVE('',#132,#133,#156,.T.);
#97=EDGE_CURVE('',#134,#132,#157,.T.);
#98=EDGE_CURVE('',#134,#135,#158,.T.);
#99=EDGE_CURVE('',#135,#133,#159,.T.);
#100=EDGE_CURVE('',#133,#128,#160,.T.);
#101=EDGE_CURVE('',#135,#130,#161,.T.);
#102=EDGE_CURVE('',#131,#134,#162,.T.);
#103=EDGE_CURVE('',#129,#132,#163,.T.);
#104=EDGE_CURVE('',#136,#137,#164,.T.);
#105=EDGE_CURVE('',#137,#138,#165,.T.);
#106=EDGE_CURVE('',#138,#139,#166,.T.);
#107=EDGE_CURVE('',#139,#136,#167,.T.);
#108=EDGE_CURVE('',#140,#136,#168,.T.);
#109=EDGE_CURVE('',#140,#141,#169,.T.);
#110=EDGE_CURVE('',#141,#137,#170,.T.);
#111=EDGE_CURVE('',#141,#142,#171,.T.);
#112=EDGE_CURVE('',#142,#138,#172,.T.);
#113=EDGE_CURVE('',#142,#143,#173,.T.);
#114=EDGE_CURVE('',#143,#139,#174,.T.);
#115=EDGE_CURVE('',#143,#140,#175,.T.);
#116=EDGE_CURVE('',#144,#145,#176,.T.);
#117=EDGE_CURVE('',#146,#144,#177,.T.);
#118=EDGE_CURVE('',#147,#146,#178,.T.);
#119=EDGE_CURVE('',#145,#147,#179,.T.);
#120=EDGE_CURVE('',#148,#144,#180,.T.);
#121=EDGE_CURVE('',#149,#148,#181,.T.);
#122=EDGE_CURVE('',#149,#146,#182,.T.);
#123=EDGE_CURVE('',#150,#145,#183,.T.);
#124=EDGE_CURVE('',#148,#150,#184,.T.);
#125=EDGE_CURVE('',#151,#147,#185,.T.);
#126=EDGE_CURVE('',#150,#151,#186,.T.);
#127=EDGE_CURVE('',#151,#149,#187,.T.);
#128=VERTEX_POINT('',#394);
#129=VERTEX_POINT('',#395);
#130=VERTEX_POINT('',#397);
#131=VERTEX_POINT('',#399);
#132=VERTEX_POINT('',#403);
#133=VERTEX_POINT('',#404);
#134=VERTEX_POINT('',#406);
#135=VERTEX_POINT('',#408);
#136=VERTEX_POINT('',#419);
#137=VERTEX_POINT('',#420);
#138=VERTEX_POINT('',#422);
#139=VERTEX_POINT('',#424);
#140=VERTEX_POINT('',#428);
#141=VERTEX_POINT('',#430);
#142=VERTEX_POINT('',#434);
#143=VERTEX_POINT('',#438);
#144=VERTEX_POINT('',#444);
#145=VERTEX_POINT('',#445);
#146=VERTEX_POINT('',#447);
#147=VERTEX_POINT('',#449);
#148=VERTEX_POINT('',#453);
#149=VERTEX_POINT('',#455);
#150=VERTEX_POINT('',#459);
#151=VERTEX_POINT('',#463);
#152=LINE('',#393,#188);
#153=LINE('',#396,#189);
#154=LINE('',#398,#190);
#155=LINE('',#400,#191);
#156=LINE('',#402,#192);
#157=LINE('',#405,#193);
#158=LINE('',#407,#194);
#159=LINE('',#409,#195);
#160=LINE('',#411,#196);
#161=LINE('',#412,#197);
#162=LINE('',#414,#198);
#163=LINE('',#416,#199);
#164=LINE('',#418,#200);
#165=LINE('',#421,#201);
#166=LINE('',#423,#202);
#167=LINE('',#425,#203);
#168=LINE('',#427,#204);
#169=LINE('',#429,#205);
#170=LINE('',#431,#206);
#171=LINE('',#433,#207);
#172=LINE('',#435,#208);
#173=LINE('',#437,#209);
#174=LINE('',#439,#210);
#175=LINE('',#441,#211);
#176=LINE('',#443,#212);
#177=LINE('',#446,#213);
#178=LINE('',#448,#214);
#179=LINE('',#450,#215);
#180=LINE('',#452,#216);
#181=LINE('',#454,#217);
#182=LINE('',#456,#218);
#183=LINE('',#458,#219);
#184=LINE('',#460,#220);
#185=LINE('',#462,#221);
#186=LINE('',#464,#222);
#187=LINE('',#466,#223);
#188=VECTOR('',#325,1000.);
#189=VECTOR('',#326,1000.);
#190=VECTOR('',#327,1000.);
#191=VECTOR('',#328,1000.);
#192=VECTOR('',#331,1000.);
#193=VECTOR('',#332,1000.);
#194=VECTOR('',#333,1000.);
#195=VECTOR('',#334,1000.);
#196=VECTOR('',#337,1000.);
#197=VECTOR('',#338,1000.);
#198=VECTOR('',#341,1000.);
#199=VECTOR('',#344,1000.);
#200=VECTOR('',#347,1000.);
#201=VECTOR('',#348,1000.);
#202=VECTOR('',#349,1000.);
#203=VECTOR('',#350,1000.);
#204=VECTOR('',#353,1000.);
#205=VECTOR('',#354,1000.);
#206=VECTOR('',#355,1000.);
#207=VECTOR('',#358,1000.);
#208=VECTOR('',#359,1000.);
#209=VECTOR('',#362,1000.);
#210=VECTOR('',#363,1000.);
#211=VECTOR('',#366,1000.);
#212=VECTOR('',#369,1000.);
#213=VECTOR('',#370,1000.);
#214=VECTOR('',#371,1000.);
#215=VECTOR('',#372,1000.);
#216=VECTOR('',#375,1000.);
#217=VECTOR('',#376,1000.);
#218=VECTOR('',#377,1000.);
#219=VECTOR('',#380,1000.);
#220=VECTOR('',#381,1000.);
#221=VECTOR('',#384,1000.);
#222=VECTOR('',#385,1000.);
#223=VECTOR('',#388,1000.);
#224=EDGE_LOOP('',(#20,#21,#22,#23));
#225=EDGE_LOOP('',(#24,#25,#26,#27));
#226=EDGE_LOOP('',(#28,#29,#30,#31));
#227=EDGE_LOOP('',(#32,#33,#34,#35));
#228=EDGE_LOOP('',(#36,#37,#38,#39));
#229=EDGE_LOOP('',(#40,#41,#42,#43));
#230=EDGE_LOOP('',(#44,#45,#46,#47));
#231=EDGE_LOOP('',(#48,#49,#50,#51));
#232=EDGE_LOOP('',(#52,#53,#54,#55));
#233=EDGE_LOOP('',(#56,#57,#58,#59));
#234=EDGE_LOOP('',(#60,#61,#62,#63));
#235=EDGE_LOOP('',(#64,#65,#66,#67));
#236=EDGE_LOOP('',(#68,#69,#70,#71));
#237=EDGE_LOOP('',(#72,#73,#74,#75));
#238=EDGE_LOOP('',(#76,#77,#78,#79));
#239=EDGE_LOOP('',(#80,#81,#82,#83));
#240=EDGE_LOOP('',(#84,#85,#86,#87));
#241=EDGE_LOOP('',(#88,#89,#90,#91));
#242=FACE_BOUND('',#224,.T.);
#243=FACE_BOUND('',#225,.T.);
#244=FACE_BOUND('',#226,.T.);
#245=FACE_BOUND('',#227,.T.);
#246=FACE_BOUND('',#228,.T.);
#247=FACE_BOUND('',#229,.T.);
#248=FACE_BOUND('',#230,.T.);
#249=FACE_BOUND('',#231,.T.);
#250=FACE_BOUND('',#232,.T.);
#251=FACE_BOUND('',#233,.T.);
#252=FACE_BOUND('',#234,.T.);
#253=FACE_BOUND('',#235,.T.);
#254=FACE_BOUND('',#236,.T.);
#255=FACE_BOUND('',#237,.T.);
#256=FACE_BOUND('',#238,.T.);
#257=FACE_BOUND('',#239,.T.);
#258=FACE_BOUND('',#240,.T.);
#259=FACE_BOUND('',#241,.T.);
#260=PLANE('',#305);
#261=PLANE('',#306);
#262=PLANE('',#307);
#263=PLANE('',#308);
#264=PLANE('',#309);
#265=PLANE('',#310);
#266=PLANE('',#311);
#267=PLANE('',#312);
#268=PLANE('',#313);
#269=PLANE('',#314);
#270=PLANE('',#315);
#271=PLANE('',#316);
#272=PLANE('',#317);
#273=PLANE('',#318);
#274=PLANE('',#319);
#275=PLANE('',#320);
#276=ADVANCED_FACE('',(#242),#260,.T.);
#277=ADVANCED_FACE('',(#243),#261,.T.);
#278=ADVANCED_FACE('',(#244),#262,.T.);
#279=ADVANCED_FACE('',(#245),#263,.F.);
#280=ADVANCED_FACE('',(#246),#264,.T.);
#281=ADVANCED_FACE('',(#247,#248),#265,.T.);
#282=ADVANCED_FACE('',(#249),#266,.T.);
#283=ADVANCED_FACE('',(#250),#267,.T.);
#284=ADVANCED_FACE('',(#251),#268,.T.);
#285=ADVANCED_FACE('',(#252),#269,.T.);
#286=ADVANCED_FACE('',(#253,#254),#270,.F.);
#287=ADVANCED_FACE('',(#255),#271,.F.);
#288=ADVANCED_FACE('',(#256),#272,.F.);
#289=ADVANCED_FACE('',(#257),#273,.F.);
#290=ADVANCED_FACE('',(#258),#274,.F.);
#291=ADVANCED_FACE('',(#259),#275,.T.);
#292=CLOSED_SHELL('',(#276,#277,#278,#279,#280,#281,#282,#283,#284,#285,
#286,#287,#288,#289,#290,#291));
#293=STYLED_ITEM('',(#294),#301);
#294=PRESENTATION_STYLE_ASSIGNMENT((#295));
#295=SURFACE_STYLE_USAGE(.BOTH.,#296);
#296=SURFACE_SIDE_STYLE('',(#297));
#297=SURFACE_STYLE_FILL_AREA(#298);
#298=FILL_AREA_STYLE('',(#299));
#299=FILL_AREA_STYLE_COLOUR('',#300);
#300=COLOUR_RGB('',0.645180702209473,0.678915679454803,0.699999988079071);
#301=MANIFOLD_SOLID_BREP('',#292);
#302=SHAPE_DEFINITION_REPRESENTATION(#474,#303);
#303=SHAPE_REPRESENTATION('FL 1520 D',(#304),#469);
#304=AXIS2_PLACEMENT_3D('',#391,#321,#322);
#305=AXIS2_PLACEMENT_3D('',#392,#323,#324);
#306=AXIS2_PLACEMENT_3D('',#401,#329,#330);
#307=AXIS2_PLACEMENT_3D('',#410,#335,#336);
#308=AXIS2_PLACEMENT_3D('',#413,#339,#340);
#309=AXIS2_PLACEMENT_3D('',#415,#342,#343);
#310=AXIS2_PLACEMENT_3D('',#417,#345,#346);
#311=AXIS2_PLACEMENT_3D('',#426,#351,#352);
#312=AXIS2_PLACEMENT_3D('',#432,#356,#357);
#313=AXIS2_PLACEMENT_3D('',#436,#360,#361);
#314=AXIS2_PLACEMENT_3D('',#440,#364,#365);
#315=AXIS2_PLACEMENT_3D('',#442,#367,#368);
#316=AXIS2_PLACEMENT_3D('',#451,#373,#374);
#317=AXIS2_PLACEMENT_3D('',#457,#378,#379);
#318=AXIS2_PLACEMENT_3D('',#461,#382,#383);
#319=AXIS2_PLACEMENT_3D('',#465,#386,#387);
#320=AXIS2_PLACEMENT_3D('',#467,#389,#390);
#321=DIRECTION('',(0.,0.,1.));
#322=DIRECTION('',(1.,0.,0.));
#323=DIRECTION('',(0.,-1.,0.));
#324=DIRECTION('',(0.,0.,-1.));
#325=DIRECTION('',(1.,0.,0.));
#326=DIRECTION('',(0.,0.,1.));
#327=DIRECTION('',(1.,0.,0.));
#328=DIRECTION('',(0.,0.,1.));
#329=DIRECTION('',(0.,1.,0.));
#330=DIRECTION('',(0.,0.,1.));
#331=DIRECTION('',(-1.,0.,0.));
#332=DIRECTION('',(0.,0.,1.));
#333=DIRECTION('',(-1.,0.,0.));
#334=DIRECTION('',(0.,0.,1.));
#335=DIRECTION('',(-1.,0.,0.));
#336=DIRECTION('',(0.,0.,1.));
#337=DIRECTION('',(0.,-1.,0.));
#338=DIRECTION('',(0.,-1.,0.));
#339=DIRECTION('',(0.,0.,1.));
#340=DIRECTION('',(1.,0.,0.));
#341=DIRECTION('',(0.,1.,0.));
#342=DIRECTION('',(0.,0.,1.));
#343=DIRECTION('',(1.,0.,0.));
#344=DIRECTION('',(0.,1.,0.));
#345=DIRECTION('',(-1.,0.,0.));
#346=DIRECTION('',(0.,0.,1.));
#347=DIRECTION('',(0.,-1.,0.));
#348=DIRECTION('',(0.,0.,1.));
#349=DIRECTION('',(0.,1.,0.));
#350=DIRECTION('',(0.,0.,-1.));
#351=DIRECTION('',(0.,0.,-1.));
#352=DIRECTION('',(-1.,0.,0.));
#353=DIRECTION('',(-1.,0.,0.));
#354=DIRECTION('',(0.,-1.,0.));
#355=DIRECTION('',(-1.,0.,0.));
#356=DIRECTION('',(0.,-1.,0.));
#357=DIRECTION('',(0.,0.,-1.));
#358=DIRECTION('',(0.,0.,1.));
#359=DIRECTION('',(-1.,0.,0.));
#360=DIRECTION('',(0.,0.,1.));
#361=DIRECTION('',(1.,0.,0.));
#362=DIRECTION('',(0.,1.,0.));
#363=DIRECTION('',(-1.,0.,0.));
#364=DIRECTION('',(0.,1.,0.));
#365=DIRECTION('',(0.,0.,1.));
#366=DIRECTION('',(0.,0.,-1.));
#367=DIRECTION('',(-1.,0.,0.));
#368=DIRECTION('',(0.,0.,1.));
#369=DIRECTION('',(0.,-1.,-2.00160401074247E-16));
#370=DIRECTION('',(0.,-1.28498035257541E-16,1.));
#371=DIRECTION('',(0.,1.,0.));
#372=DIRECTION('',(0.,1.28498035257541E-16,-1.));
#373=DIRECTION('',(0.,1.,1.28498035257541E-16));
#374=DIRECTION('',(0.,-1.28498035257541E-16,1.));
#375=DIRECTION('',(1.,0.,0.));
#376=DIRECTION('',(0.,-1.28498035257541E-16,1.));
#377=DIRECTION('',(1.,0.,0.));
#378=DIRECTION('',(0.,-2.00160401074247E-16,1.));
#379=DIRECTION('',(0.,-1.,-2.00160401074247E-16));
#380=DIRECTION('',(1.,0.,0.));
#381=DIRECTION('',(0.,-1.,-2.00160401074247E-16));
#382=DIRECTION('',(0.,-1.,-1.28498035257541E-16));
#383=DIRECTION('',(0.,1.28498035257541E-16,-1.));
#384=DIRECTION('',(1.,0.,0.));
#385=DIRECTION('',(0.,1.28498035257541E-16,-1.));
#386=DIRECTION('',(0.,0.,-1.));
#387=DIRECTION('',(-1.,0.,0.));
#388=DIRECTION('',(0.,1.,0.));
#389=DIRECTION('',(1.,0.,0.));
#390=DIRECTION('',(0.,0.,-1.));
#391=CARTESIAN_POINT('',(0.,0.,0.));
#392=CARTESIAN_POINT('',(-25.,-106.5,-113.));
#393=CARTESIAN_POINT('',(-25.,-106.5,0.));
#394=CARTESIAN_POINT('',(-25.,-106.5,0.));
#395=CARTESIAN_POINT('',(25.,-106.5,0.));
#396=CARTESIAN_POINT('',(-25.,-106.5,-113.));
#397=CARTESIAN_POINT('',(-25.,-106.5,-113.));
#398=CARTESIAN_POINT('',(-25.,-106.5,-113.));
#399=CARTESIAN_POINT('',(25.,-106.5,-113.));
#400=CARTESIAN_POINT('',(25.,-106.5,-113.));
#401=CARTESIAN_POINT('',(25.,106.5,-113.));
#402=CARTESIAN_POINT('',(25.,106.5,0.));
#403=CARTESIAN_POINT('',(25.,106.5,0.));
#404=CARTESIAN_POINT('',(-25.,106.5,0.));
#405=CARTESIAN_POINT('',(25.,106.5,-113.));
#406=CARTESIAN_POINT('',(25.,106.5,-113.));
#407=CARTESIAN_POINT('',(25.,106.5,-113.));
#408=CARTESIAN_POINT('',(-25.,106.5,-113.));
#409=CARTESIAN_POINT('',(-25.,106.5,-113.));
#410=CARTESIAN_POINT('',(-25.,106.5,-113.));
#411=CARTESIAN_POINT('',(-25.,106.5,0.));
#412=CARTESIAN_POINT('',(-25.,106.5,-113.));
#413=CARTESIAN_POINT('',(0.,0.,-113.));
#414=CARTESIAN_POINT('',(25.,-106.5,-113.));
#415=CARTESIAN_POINT('',(0.,0.,0.));
#416=CARTESIAN_POINT('',(25.,-106.5,0.));
#417=CARTESIAN_POINT('',(25.,0.,0.));
#418=CARTESIAN_POINT('',(25.,118.4,-124.9));
#419=CARTESIAN_POINT('',(25.,118.4,-124.9));
#420=CARTESIAN_POINT('',(25.,-118.4,-124.9));
#421=CARTESIAN_POINT('',(25.,-118.4,-124.9));
#422=CARTESIAN_POINT('',(25.,-118.4,11.9));
#423=CARTESIAN_POINT('',(25.,-118.4,11.9));
#424=CARTESIAN_POINT('',(25.,118.4,11.9));
#425=CARTESIAN_POINT('',(25.,118.4,11.9));
#426=CARTESIAN_POINT('',(39.4,118.4,-124.9));
#427=CARTESIAN_POINT('',(39.4,118.4,-124.9));
#428=CARTESIAN_POINT('',(39.4,118.4,-124.9));
#429=CARTESIAN_POINT('',(39.4,118.4,-124.9));
#430=CARTESIAN_POINT('',(39.4,-118.4,-124.9));
#431=CARTESIAN_POINT('',(39.4,-118.4,-124.9));
#432=CARTESIAN_POINT('',(39.4,-118.4,-124.9));
#433=CARTESIAN_POINT('',(39.4,-118.4,-124.9));
#434=CARTESIAN_POINT('',(39.4,-118.4,11.9));
#435=CARTESIAN_POINT('',(39.4,-118.4,11.9));
#436=CARTESIAN_POINT('',(39.4,-118.4,11.9));
#437=CARTESIAN_POINT('',(39.4,-118.4,11.9));
#438=CARTESIAN_POINT('',(39.4,118.4,11.9));
#439=CARTESIAN_POINT('',(39.4,118.4,11.9));
#440=CARTESIAN_POINT('',(39.4,118.4,11.9));
#441=CARTESIAN_POINT('',(39.4,118.4,11.9));
#442=CARTESIAN_POINT('',(39.4,0.,0.));
#443=CARTESIAN_POINT('',(39.4,104.,-2.49999999999999));
#444=CARTESIAN_POINT('',(39.4,104.,-2.49999999999999));
#445=CARTESIAN_POINT('',(39.4,-104.,-2.50000000000003));
#446=CARTESIAN_POINT('',(39.4,104.,-110.5));
#447=CARTESIAN_POINT('',(39.4,104.,-110.5));
#448=CARTESIAN_POINT('',(39.4,-104.,-110.5));
#449=CARTESIAN_POINT('',(39.4,-104.,-110.5));
#450=CARTESIAN_POINT('',(39.4,-104.,-2.50000000000003));
#451=CARTESIAN_POINT('',(38.4,104.,-110.5));
#452=CARTESIAN_POINT('',(38.4,104.,-2.49999999999999));
#453=CARTESIAN_POINT('',(38.4,104.,-2.49999999999999));
#454=CARTESIAN_POINT('',(38.4,104.,-110.5));
#455=CARTESIAN_POINT('',(38.4,104.,-110.5));
#456=CARTESIAN_POINT('',(38.4,104.,-110.5));
#457=CARTESIAN_POINT('',(38.4,104.,-2.49999999999999));
#458=CARTESIAN_POINT('',(38.4,-104.,-2.50000000000003));
#459=CARTESIAN_POINT('',(38.4,-104.,-2.50000000000003));
#460=CARTESIAN_POINT('',(38.4,104.,-2.49999999999999));
#461=CARTESIAN_POINT('',(38.4,-104.,-2.50000000000003));
#462=CARTESIAN_POINT('',(38.4,-104.,-110.5));
#463=CARTESIAN_POINT('',(38.4,-104.,-110.5));
#464=CARTESIAN_POINT('',(38.4,-104.,-2.50000000000003));
#465=CARTESIAN_POINT('',(38.4,-104.,-110.5));
#466=CARTESIAN_POINT('',(38.4,-104.,-110.5));
#467=CARTESIAN_POINT('',(38.4,0.,0.));
#468=MECHANICAL_DESIGN_GEOMETRIC_PRESENTATION_REPRESENTATION('',(#293),
#469);
#469=(
GEOMETRIC_REPRESENTATION_CONTEXT(3)
GLOBAL_UNCERTAINTY_ASSIGNED_CONTEXT((#470))
GLOBAL_UNIT_ASSIGNED_CONTEXT((#473,#472,#471))
REPRESENTATION_CONTEXT('FL 1520 D','TOP_LEVEL_ASSEMBLY_PART')
);
#470=UNCERTAINTY_MEASURE_WITH_UNIT(LENGTH_MEASURE(0.005),#473,
'DISTANCE_ACCURACY_VALUE','Maximum Tolerance applied to model');
#471=(
NAMED_UNIT(*)
SI_UNIT($,.STERADIAN.)
SOLID_ANGLE_UNIT()
);
#472=(
NAMED_UNIT(*)
PLANE_ANGLE_UNIT()
SI_UNIT($,.RADIAN.)
);
#473=(
LENGTH_UNIT()
NAMED_UNIT(*)
SI_UNIT(.MILLI.,.METRE.)
);
#474=PRODUCT_DEFINITION_SHAPE('','',#475);
#475=PRODUCT_DEFINITION('','',#477,#476);
#476=PRODUCT_DEFINITION_CONTEXT('',#483,'design');
#477=PRODUCT_DEFINITION_FORMATION_WITH_SPECIFIED_SOURCE('','',#479,
 .NOT_KNOWN.);
#478=PRODUCT_RELATED_PRODUCT_CATEGORY('','',(#479));
#479=PRODUCT('FL 1520 D','FL 1520 D','FL 1520 D',(#481));
#480=PRODUCT_CATEGORY('','');
#481=PRODUCT_CONTEXT('',#483,'mechanical');
#482=APPLICATION_PROTOCOL_DEFINITION('international standard',
'automotive_design',2010,#483);
#483=APPLICATION_CONTEXT(
'core data for automotive mechanical design processes');
ENDSEC;
END-ISO-10303-21;
