ISO-10303-21;
HEADER;
/* Generated by software containing ST-Developer
 * from STEP Tools, Inc. (www.steptools.com) 
 */
/* OPTION: strings as raw bytes, not using required /X/ escapes */

FILE_DESCRIPTION(
/* description */ ('Unknown'),
/* implementation_level */ '2;1');

FILE_NAME(
/* name */ 'SNP 1012 P',
/* time_stamp */ '2020-06-10T10:37:13+02:00',
/* author */ ('Unknown'),
/* organization */ ('Unknown'),
/* preprocessor_version */ 'ST-DEVELOPER v16.7',
/* originating_system */ 'Solid Edge',
/* authorisation */ 'Unknown');

FILE_SCHEMA (('AUTOMOTIVE_DESIGN {1 0 10303 214 3 1 1}'));
ENDSEC;

DATA;
#10=PROPERTY_DEFINITION_REPRESENTATION(#14,#12);
#11=PROPERTY_DEFINITION_REPRESENTATION(#15,#13);
#12=REPRESENTATION('',(#16),#407);
#13=REPRESENTATION('',(#17),#407);
#14=PROPERTY_DEFINITION('pmi validation property','',#412);
#15=PROPERTY_DEFINITION('pmi validation property','',#412);
#16=VALUE_REPRESENTATION_ITEM('number of annotations',COUNT_MEASURE(0.));
#17=VALUE_REPRESENTATION_ITEM('number of views',COUNT_MEASURE(0.));
#18=SHAPE_REPRESENTATION_RELATIONSHIP('','',#257,#19);
#19=ADVANCED_BREP_SHAPE_REPRESENTATION('',(#255),#407);
#20=CYLINDRICAL_SURFACE('',#271,6.75000000000001);
#21=CYLINDRICAL_SURFACE('',#274,8.50000000000001);
#22=CIRCLE('',#263,8.50000000000001);
#23=CIRCLE('',#272,6.75000000000001);
#24=CIRCLE('',#273,6.75000000000001);
#25=CIRCLE('',#275,8.50000000000001);
#26=ORIENTED_EDGE('',*,*,#82,.F.);
#27=ORIENTED_EDGE('',*,*,#83,.F.);
#28=ORIENTED_EDGE('',*,*,#84,.T.);
#29=ORIENTED_EDGE('',*,*,#85,.T.);
#30=ORIENTED_EDGE('',*,*,#86,.T.);
#31=ORIENTED_EDGE('',*,*,#87,.T.);
#32=ORIENTED_EDGE('',*,*,#88,.T.);
#33=ORIENTED_EDGE('',*,*,#89,.T.);
#34=ORIENTED_EDGE('',*,*,#90,.F.);
#35=ORIENTED_EDGE('',*,*,#91,.F.);
#36=ORIENTED_EDGE('',*,*,#92,.T.);
#37=ORIENTED_EDGE('',*,*,#83,.T.);
#38=ORIENTED_EDGE('',*,*,#93,.F.);
#39=ORIENTED_EDGE('',*,*,#85,.F.);
#40=ORIENTED_EDGE('',*,*,#94,.T.);
#41=ORIENTED_EDGE('',*,*,#95,.T.);
#42=ORIENTED_EDGE('',*,*,#96,.T.);
#43=ORIENTED_EDGE('',*,*,#97,.F.);
#44=ORIENTED_EDGE('',*,*,#95,.F.);
#45=ORIENTED_EDGE('',*,*,#98,.T.);
#46=ORIENTED_EDGE('',*,*,#91,.T.);
#47=ORIENTED_EDGE('',*,*,#92,.F.);
#48=ORIENTED_EDGE('',*,*,#98,.F.);
#49=ORIENTED_EDGE('',*,*,#94,.F.);
#50=ORIENTED_EDGE('',*,*,#84,.F.);
#51=ORIENTED_EDGE('',*,*,#90,.T.);
#52=ORIENTED_EDGE('',*,*,#82,.T.);
#53=ORIENTED_EDGE('',*,*,#93,.T.);
#54=ORIENTED_EDGE('',*,*,#97,.T.);
#55=ORIENTED_EDGE('',*,*,#87,.F.);
#56=ORIENTED_EDGE('',*,*,#99,.F.);
#57=ORIENTED_EDGE('',*,*,#100,.T.);
#58=ORIENTED_EDGE('',*,*,#101,.T.);
#59=ORIENTED_EDGE('',*,*,#88,.F.);
#60=ORIENTED_EDGE('',*,*,#101,.F.);
#61=ORIENTED_EDGE('',*,*,#102,.T.);
#62=ORIENTED_EDGE('',*,*,#103,.T.);
#63=ORIENTED_EDGE('',*,*,#89,.F.);
#64=ORIENTED_EDGE('',*,*,#103,.F.);
#65=ORIENTED_EDGE('',*,*,#104,.T.);
#66=ORIENTED_EDGE('',*,*,#105,.T.);
#67=ORIENTED_EDGE('',*,*,#86,.F.);
#68=ORIENTED_EDGE('',*,*,#105,.F.);
#69=ORIENTED_EDGE('',*,*,#106,.T.);
#70=ORIENTED_EDGE('',*,*,#99,.T.);
#71=ORIENTED_EDGE('',*,*,#100,.F.);
#72=ORIENTED_EDGE('',*,*,#106,.F.);
#73=ORIENTED_EDGE('',*,*,#104,.F.);
#74=ORIENTED_EDGE('',*,*,#102,.F.);
#75=ORIENTED_EDGE('',*,*,#107,.F.);
#76=ORIENTED_EDGE('',*,*,#108,.T.);
#77=ORIENTED_EDGE('',*,*,#109,.T.);
#78=ORIENTED_EDGE('',*,*,#96,.F.);
#79=ORIENTED_EDGE('',*,*,#107,.T.);
#80=ORIENTED_EDGE('',*,*,#109,.F.);
#81=ORIENTED_EDGE('',*,*,#108,.F.);
#82=EDGE_CURVE('',#110,#111,#130,.T.);
#83=EDGE_CURVE('',#112,#110,#131,.T.);
#84=EDGE_CURVE('',#112,#113,#132,.T.);
#85=EDGE_CURVE('',#113,#111,#133,.T.);
#86=EDGE_CURVE('',#114,#115,#134,.T.);
#87=EDGE_CURVE('',#115,#116,#135,.T.);
#88=EDGE_CURVE('',#116,#117,#136,.T.);
#89=EDGE_CURVE('',#117,#114,#137,.T.);
#90=EDGE_CURVE('',#118,#110,#138,.T.);
#91=EDGE_CURVE('',#119,#118,#139,.T.);
#92=EDGE_CURVE('',#119,#112,#140,.T.);
#93=EDGE_CURVE('',#111,#120,#141,.T.);
#94=EDGE_CURVE('',#113,#121,#142,.T.);
#95=EDGE_CURVE('',#121,#120,#143,.T.);
#96=EDGE_CURVE('',#122,#122,#22,.T.);
#97=EDGE_CURVE('',#120,#118,#144,.T.);
#98=EDGE_CURVE('',#121,#119,#145,.T.);
#99=EDGE_CURVE('',#123,#115,#146,.T.);
#100=EDGE_CURVE('',#123,#124,#147,.T.);
#101=EDGE_CURVE('',#124,#116,#148,.T.);
#102=EDGE_CURVE('',#124,#125,#149,.T.);
#103=EDGE_CURVE('',#125,#117,#150,.T.);
#104=EDGE_CURVE('',#125,#126,#151,.T.);
#105=EDGE_CURVE('',#126,#114,#152,.T.);
#106=EDGE_CURVE('',#126,#123,#153,.T.);
#107=EDGE_CURVE('',#127,#127,#23,.T.);
#108=EDGE_CURVE('',#128,#128,#24,.T.);
#109=EDGE_CURVE('',#129,#129,#25,.T.);
#110=VERTEX_POINT('',#345);
#111=VERTEX_POINT('',#346);
#112=VERTEX_POINT('',#348);
#113=VERTEX_POINT('',#350);
#114=VERTEX_POINT('',#353);
#115=VERTEX_POINT('',#354);
#116=VERTEX_POINT('',#356);
#117=VERTEX_POINT('',#358);
#118=VERTEX_POINT('',#362);
#119=VERTEX_POINT('',#364);
#120=VERTEX_POINT('',#368);
#121=VERTEX_POINT('',#370);
#122=VERTEX_POINT('',#374);
#123=VERTEX_POINT('',#381);
#124=VERTEX_POINT('',#383);
#125=VERTEX_POINT('',#387);
#126=VERTEX_POINT('',#391);
#127=VERTEX_POINT('',#398);
#128=VERTEX_POINT('',#400);
#129=VERTEX_POINT('',#403);
#130=LINE('',#344,#154);
#131=LINE('',#347,#155);
#132=LINE('',#349,#156);
#133=LINE('',#351,#157);
#134=LINE('',#352,#158);
#135=LINE('',#355,#159);
#136=LINE('',#357,#160);
#137=LINE('',#359,#161);
#138=LINE('',#361,#162);
#139=LINE('',#363,#163);
#140=LINE('',#365,#164);
#141=LINE('',#367,#165);
#142=LINE('',#369,#166);
#143=LINE('',#371,#167);
#144=LINE('',#375,#168);
#145=LINE('',#376,#169);
#146=LINE('',#380,#170);
#147=LINE('',#382,#171);
#148=LINE('',#384,#172);
#149=LINE('',#386,#173);
#150=LINE('',#388,#174);
#151=LINE('',#390,#175);
#152=LINE('',#392,#176);
#153=LINE('',#394,#177);
#154=VECTOR('',#282,1000.);
#155=VECTOR('',#283,1000.);
#156=VECTOR('',#284,1000.);
#157=VECTOR('',#285,1000.);
#158=VECTOR('',#286,1000.);
#159=VECTOR('',#287,1000.);
#160=VECTOR('',#288,1000.);
#161=VECTOR('',#289,1000.);
#162=VECTOR('',#292,1000.);
#163=VECTOR('',#293,1000.);
#164=VECTOR('',#294,1000.);
#165=VECTOR('',#297,1000.);
#166=VECTOR('',#298,1000.);
#167=VECTOR('',#299,1000.);
#168=VECTOR('',#304,1000.);
#169=VECTOR('',#305,1000.);
#170=VECTOR('',#312,1000.);
#171=VECTOR('',#313,1000.);
#172=VECTOR('',#314,1000.);
#173=VECTOR('',#317,1000.);
#174=VECTOR('',#318,1000.);
#175=VECTOR('',#321,1000.);
#176=VECTOR('',#322,1000.);
#177=VECTOR('',#325,1000.);
#178=EDGE_LOOP('',(#26,#27,#28,#29));
#179=EDGE_LOOP('',(#30,#31,#32,#33));
#180=EDGE_LOOP('',(#34,#35,#36,#37));
#181=EDGE_LOOP('',(#38,#39,#40,#41));
#182=EDGE_LOOP('',(#42));
#183=EDGE_LOOP('',(#43,#44,#45,#46));
#184=EDGE_LOOP('',(#47,#48,#49,#50));
#185=EDGE_LOOP('',(#51,#52,#53,#54));
#186=EDGE_LOOP('',(#55,#56,#57,#58));
#187=EDGE_LOOP('',(#59,#60,#61,#62));
#188=EDGE_LOOP('',(#63,#64,#65,#66));
#189=EDGE_LOOP('',(#67,#68,#69,#70));
#190=EDGE_LOOP('',(#71,#72,#73,#74));
#191=EDGE_LOOP('',(#75));
#192=EDGE_LOOP('',(#76));
#193=EDGE_LOOP('',(#77));
#194=EDGE_LOOP('',(#78));
#195=EDGE_LOOP('',(#79));
#196=EDGE_LOOP('',(#80));
#197=EDGE_LOOP('',(#81));
#198=FACE_BOUND('',#178,.T.);
#199=FACE_BOUND('',#179,.T.);
#200=FACE_BOUND('',#180,.T.);
#201=FACE_BOUND('',#181,.T.);
#202=FACE_BOUND('',#182,.T.);
#203=FACE_BOUND('',#183,.T.);
#204=FACE_BOUND('',#184,.T.);
#205=FACE_BOUND('',#185,.T.);
#206=FACE_BOUND('',#186,.T.);
#207=FACE_BOUND('',#187,.T.);
#208=FACE_BOUND('',#188,.T.);
#209=FACE_BOUND('',#189,.T.);
#210=FACE_BOUND('',#190,.T.);
#211=FACE_BOUND('',#191,.T.);
#212=FACE_BOUND('',#192,.T.);
#213=FACE_BOUND('',#193,.T.);
#214=FACE_BOUND('',#194,.T.);
#215=FACE_BOUND('',#195,.T.);
#216=FACE_BOUND('',#196,.T.);
#217=FACE_BOUND('',#197,.T.);
#218=PLANE('',#259);
#219=PLANE('',#260);
#220=PLANE('',#261);
#221=PLANE('',#262);
#222=PLANE('',#264);
#223=PLANE('',#265);
#224=PLANE('',#266);
#225=PLANE('',#267);
#226=PLANE('',#268);
#227=PLANE('',#269);
#228=PLANE('',#270);
#229=PLANE('',#276);
#230=PLANE('',#277);
#231=ADVANCED_FACE('',(#198,#199),#218,.T.);
#232=ADVANCED_FACE('',(#200),#219,.T.);
#233=ADVANCED_FACE('',(#201),#220,.T.);
#234=ADVANCED_FACE('',(#202,#203),#221,.T.);
#235=ADVANCED_FACE('',(#204),#222,.F.);
#236=ADVANCED_FACE('',(#205),#223,.T.);
#237=ADVANCED_FACE('',(#206),#224,.T.);
#238=ADVANCED_FACE('',(#207),#225,.T.);
#239=ADVANCED_FACE('',(#208),#226,.T.);
#240=ADVANCED_FACE('',(#209),#227,.T.);
#241=ADVANCED_FACE('',(#210),#228,.F.);
#242=ADVANCED_FACE('',(#211,#212),#20,.F.);
#243=ADVANCED_FACE('',(#213,#214),#21,.T.);
#244=ADVANCED_FACE('',(#215,#216),#229,.F.);
#245=ADVANCED_FACE('',(#217),#230,.T.);
#246=CLOSED_SHELL('',(#231,#232,#233,#234,#235,#236,#237,#238,#239,#240,
#241,#242,#243,#244,#245));
#247=STYLED_ITEM('',(#248),#255);
#248=PRESENTATION_STYLE_ASSIGNMENT((#249));
#249=SURFACE_STYLE_USAGE(.BOTH.,#250);
#250=SURFACE_SIDE_STYLE('',(#251));
#251=SURFACE_STYLE_FILL_AREA(#252);
#252=FILL_AREA_STYLE('',(#253));
#253=FILL_AREA_STYLE_COLOUR('',#254);
#254=COLOUR_RGB('',0.645180702209473,0.678915679454803,0.699999988079071);
#255=MANIFOLD_SOLID_BREP('',#246);
#256=SHAPE_DEFINITION_REPRESENTATION(#412,#257);
#257=SHAPE_REPRESENTATION('SNP 1012 P',(#258),#407);
#258=AXIS2_PLACEMENT_3D('',#342,#278,#279);
#259=AXIS2_PLACEMENT_3D('',#343,#280,#281);
#260=AXIS2_PLACEMENT_3D('',#360,#290,#291);
#261=AXIS2_PLACEMENT_3D('',#366,#295,#296);
#262=AXIS2_PLACEMENT_3D('',#372,#300,#301);
#263=AXIS2_PLACEMENT_3D('',#373,#302,#303);
#264=AXIS2_PLACEMENT_3D('',#377,#306,#307);
#265=AXIS2_PLACEMENT_3D('',#378,#308,#309);
#266=AXIS2_PLACEMENT_3D('',#379,#310,#311);
#267=AXIS2_PLACEMENT_3D('',#385,#315,#316);
#268=AXIS2_PLACEMENT_3D('',#389,#319,#320);
#269=AXIS2_PLACEMENT_3D('',#393,#323,#324);
#270=AXIS2_PLACEMENT_3D('',#395,#326,#327);
#271=AXIS2_PLACEMENT_3D('',#396,#328,#329);
#272=AXIS2_PLACEMENT_3D('',#397,#330,#331);
#273=AXIS2_PLACEMENT_3D('',#399,#332,#333);
#274=AXIS2_PLACEMENT_3D('',#401,#334,#335);
#275=AXIS2_PLACEMENT_3D('',#402,#336,#337);
#276=AXIS2_PLACEMENT_3D('',#404,#338,#339);
#277=AXIS2_PLACEMENT_3D('',#405,#340,#341);
#278=DIRECTION('',(0.,0.,1.));
#279=DIRECTION('',(1.,0.,0.));
#280=DIRECTION('',(0.,0.,-1.));
#281=DIRECTION('',(-1.,0.,0.));
#282=DIRECTION('',(1.,0.,0.));
#283=DIRECTION('',(0.,-1.,0.));
#284=DIRECTION('',(1.,0.,0.));
#285=DIRECTION('',(0.,-1.,0.));
#286=DIRECTION('',(-1.24402480348934E-16,-1.,0.));
#287=DIRECTION('',(1.,0.,0.));
#288=DIRECTION('',(-1.24402480348934E-16,1.,0.));
#289=DIRECTION('',(-1.,0.,0.));
#290=DIRECTION('',(-1.,0.,0.));
#291=DIRECTION('',(0.,0.,1.));
#292=DIRECTION('',(0.,0.,-1.));
#293=DIRECTION('',(0.,-1.,0.));
#294=DIRECTION('',(0.,0.,-1.));
#295=DIRECTION('',(1.,0.,0.));
#296=DIRECTION('',(0.,0.,-1.));
#297=DIRECTION('',(0.,0.,1.));
#298=DIRECTION('',(0.,0.,1.));
#299=DIRECTION('',(0.,-1.,0.));
#300=DIRECTION('',(0.,0.,1.));
#301=DIRECTION('',(1.,0.,0.));
#302=DIRECTION('',(0.,0.,-1.));
#303=DIRECTION('',(0.,1.,0.));
#304=DIRECTION('',(-1.,0.,0.));
#305=DIRECTION('',(-1.,0.,0.));
#306=DIRECTION('',(0.,-1.,0.));
#307=DIRECTION('',(0.,0.,-1.));
#308=DIRECTION('',(0.,-1.,0.));
#309=DIRECTION('',(0.,0.,-1.));
#310=DIRECTION('',(0.,1.,0.));
#311=DIRECTION('',(0.,0.,1.));
#312=DIRECTION('',(0.,0.,-1.));
#313=DIRECTION('',(1.,0.,0.));
#314=DIRECTION('',(0.,0.,-1.));
#315=DIRECTION('',(-1.,-1.24402480348934E-16,0.));
#316=DIRECTION('',(1.24402480348934E-16,-1.,0.));
#317=DIRECTION('',(-1.24402480348934E-16,1.,0.));
#318=DIRECTION('',(0.,0.,-1.));
#319=DIRECTION('',(0.,-1.,0.));
#320=DIRECTION('',(0.,0.,-1.));
#321=DIRECTION('',(-1.,0.,0.));
#322=DIRECTION('',(0.,0.,-1.));
#323=DIRECTION('',(1.,-1.24402480348934E-16,0.));
#324=DIRECTION('',(1.24402480348934E-16,1.,0.));
#325=DIRECTION('',(-1.24402480348934E-16,-1.,0.));
#326=DIRECTION('',(0.,0.,1.));
#327=DIRECTION('',(1.,0.,0.));
#328=DIRECTION('',(0.,0.,-1.));
#329=DIRECTION('',(-1.,0.,0.));
#330=DIRECTION('',(0.,0.,-1.));
#331=DIRECTION('',(0.,1.,0.));
#332=DIRECTION('',(0.,0.,-1.));
#333=DIRECTION('',(0.,1.,0.));
#334=DIRECTION('',(0.,0.,-1.));
#335=DIRECTION('',(-1.,0.,0.));
#336=DIRECTION('',(0.,0.,-1.));
#337=DIRECTION('',(0.,1.,0.));
#338=DIRECTION('',(0.,0.,-1.));
#339=DIRECTION('',(-1.,0.,0.));
#340=DIRECTION('',(0.,0.,1.));
#341=DIRECTION('',(1.,0.,0.));
#342=CARTESIAN_POINT('',(0.,0.,0.));
#343=CARTESIAN_POINT('',(-31.,255.,-31.));
#344=CARTESIAN_POINT('',(-31.,0.,-31.));
#345=CARTESIAN_POINT('',(-31.,0.,-31.));
#346=CARTESIAN_POINT('',(31.,0.,-31.));
#347=CARTESIAN_POINT('',(-31.,255.,-31.));
#348=CARTESIAN_POINT('',(-31.,255.,-31.));
#349=CARTESIAN_POINT('',(-31.,255.,-31.));
#350=CARTESIAN_POINT('',(31.,255.,-31.));
#351=CARTESIAN_POINT('',(31.,255.,-31.));
#352=CARTESIAN_POINT('',(-4.49999999999998,253.,-31.));
#353=CARTESIAN_POINT('',(-4.49999999999998,253.,-31.));
#354=CARTESIAN_POINT('',(-4.50000000000001,2.,-31.));
#355=CARTESIAN_POINT('',(-4.50000000000002,2.,-31.));
#356=CARTESIAN_POINT('',(4.50000000000002,2.,-31.));
#357=CARTESIAN_POINT('',(4.50000000000002,2.,-31.));
#358=CARTESIAN_POINT('',(4.49999999999998,253.,-31.));
#359=CARTESIAN_POINT('',(4.49999999999998,253.,-31.));
#360=CARTESIAN_POINT('',(-31.,255.,31.));
#361=CARTESIAN_POINT('',(-31.,0.,31.));
#362=CARTESIAN_POINT('',(-31.,0.,31.));
#363=CARTESIAN_POINT('',(-31.,255.,31.));
#364=CARTESIAN_POINT('',(-31.,255.,31.));
#365=CARTESIAN_POINT('',(-31.,255.,31.));
#366=CARTESIAN_POINT('',(31.,255.,-31.));
#367=CARTESIAN_POINT('',(31.,0.,-31.));
#368=CARTESIAN_POINT('',(31.,0.,31.));
#369=CARTESIAN_POINT('',(31.,255.,-31.));
#370=CARTESIAN_POINT('',(31.,255.,31.));
#371=CARTESIAN_POINT('',(31.,255.,31.));
#372=CARTESIAN_POINT('',(31.,255.,31.));
#373=CARTESIAN_POINT('',(0.,127.5,31.));
#374=CARTESIAN_POINT('',(0.,136.,31.));
#375=CARTESIAN_POINT('',(31.,0.,31.));
#376=CARTESIAN_POINT('',(31.,255.,31.));
#377=CARTESIAN_POINT('',(0.,255.,0.));
#378=CARTESIAN_POINT('',(0.,0.,0.));
#379=CARTESIAN_POINT('',(-4.50000000000002,2.,-21.));
#380=CARTESIAN_POINT('',(-4.50000000000002,2.,-21.));
#381=CARTESIAN_POINT('',(-4.50000000000002,2.,-21.));
#382=CARTESIAN_POINT('',(-4.50000000000002,2.,-21.));
#383=CARTESIAN_POINT('',(4.50000000000002,2.,-21.));
#384=CARTESIAN_POINT('',(4.50000000000002,2.,-21.));
#385=CARTESIAN_POINT('',(4.50000000000002,2.,-21.));
#386=CARTESIAN_POINT('',(4.50000000000002,2.,-21.));
#387=CARTESIAN_POINT('',(4.49999999999998,253.,-21.));
#388=CARTESIAN_POINT('',(4.49999999999998,253.,-21.));
#389=CARTESIAN_POINT('',(4.49999999999998,253.,-21.));
#390=CARTESIAN_POINT('',(4.49999999999998,253.,-21.));
#391=CARTESIAN_POINT('',(-4.49999999999998,253.,-21.));
#392=CARTESIAN_POINT('',(-4.49999999999998,253.,-21.));
#393=CARTESIAN_POINT('',(-4.49999999999998,253.,-21.));
#394=CARTESIAN_POINT('',(-4.49999999999998,253.,-21.));
#395=CARTESIAN_POINT('',(0.,0.,-21.));
#396=CARTESIAN_POINT('',(0.,127.5,37.8));
#397=CARTESIAN_POINT('',(0.,127.5,37.8));
#398=CARTESIAN_POINT('',(0.,134.25,37.8));
#399=CARTESIAN_POINT('',(0.,127.5,31.));
#400=CARTESIAN_POINT('',(0.,134.25,31.));
#401=CARTESIAN_POINT('',(0.,127.5,37.8));
#402=CARTESIAN_POINT('',(0.,127.5,37.8));
#403=CARTESIAN_POINT('',(0.,136.,37.8));
#404=CARTESIAN_POINT('',(0.,127.5,37.8));
#405=CARTESIAN_POINT('',(31.,255.,31.));
#406=MECHANICAL_DESIGN_GEOMETRIC_PRESENTATION_REPRESENTATION('',(#247),
#407);
#407=(
GEOMETRIC_REPRESENTATION_CONTEXT(3)
GLOBAL_UNCERTAINTY_ASSIGNED_CONTEXT((#408))
GLOBAL_UNIT_ASSIGNED_CONTEXT((#411,#410,#409))
REPRESENTATION_CONTEXT('SNP 1012 P','TOP_LEVEL_ASSEMBLY_PART')
);
#408=UNCERTAINTY_MEASURE_WITH_UNIT(LENGTH_MEASURE(0.005),#411,
'DISTANCE_ACCURACY_VALUE','Maximum Tolerance applied to model');
#409=(
NAMED_UNIT(*)
SI_UNIT($,.STERADIAN.)
SOLID_ANGLE_UNIT()
);
#410=(
NAMED_UNIT(*)
PLANE_ANGLE_UNIT()
SI_UNIT($,.RADIAN.)
);
#411=(
LENGTH_UNIT()
NAMED_UNIT(*)
SI_UNIT(.MILLI.,.METRE.)
);
#412=PRODUCT_DEFINITION_SHAPE('','',#413);
#413=PRODUCT_DEFINITION('','',#415,#414);
#414=PRODUCT_DEFINITION_CONTEXT('',#421,'design');
#415=PRODUCT_DEFINITION_FORMATION_WITH_SPECIFIED_SOURCE('','',#417,
 .NOT_KNOWN.);
#416=PRODUCT_RELATED_PRODUCT_CATEGORY('','',(#417));
#417=PRODUCT('SNP 1012 P','SNP 1012 P','SNP 1012 P',(#419));
#418=PRODUCT_CATEGORY('','');
#419=PRODUCT_CONTEXT('',#421,'mechanical');
#420=APPLICATION_PROTOCOL_DEFINITION('international standard',
'automotive_design',2010,#421);
#421=APPLICATION_CONTEXT(
'core data for automotive mechanical design processes');
ENDSEC;
END-ISO-10303-21;
