ISO-10303-21;
HEADER;
/* Generated by software containing ST-Developer
 * from STEP Tools, Inc. (www.steptools.com) 
 */
/* OPTION: strings as raw bytes, not using required /X/ escapes */

FILE_DESCRIPTION(
/* description */ ('Unknown'),
/* implementation_level */ '2;1');

FILE_NAME(
/* name */ 'SNP 1012 S',
/* time_stamp */ '2020-06-10T11:16:52+02:00',
/* author */ ('Unknown'),
/* organization */ ('Unknown'),
/* preprocessor_version */ 'ST-DEVELOPER v16.7',
/* originating_system */ 'Solid Edge',
/* authorisation */ 'Unknown');

FILE_SCHEMA (('AUTOMOTIVE_DESIGN {1 0 10303 214 3 1 1}'));
ENDSEC;

DATA;
#10=PROPERTY_DEFINITION_REPRESENTATION(#14,#12);
#11=PROPERTY_DEFINITION_REPRESENTATION(#15,#13);
#12=REPRESENTATION('',(#16),#727);
#13=REPRESENTATION('',(#17),#727);
#14=PROPERTY_DEFINITION('pmi validation property','',#732);
#15=PROPERTY_DEFINITION('pmi validation property','',#732);
#16=VALUE_REPRESENTATION_ITEM('number of annotations',COUNT_MEASURE(0.));
#17=VALUE_REPRESENTATION_ITEM('number of views',COUNT_MEASURE(0.));
#18=SHAPE_REPRESENTATION_RELATIONSHIP('','',#433,#19);
#19=ADVANCED_BREP_SHAPE_REPRESENTATION('',(#431),#727);
#20=CYLINDRICAL_SURFACE('',#450,10.);
#21=CYLINDRICAL_SURFACE('',#453,10.);
#22=CYLINDRICAL_SURFACE('',#456,2.4);
#23=CYLINDRICAL_SURFACE('',#460,2.40000000000001);
#24=CYLINDRICAL_SURFACE('',#464,0.600000000000003);
#25=CYLINDRICAL_SURFACE('',#466,0.599999999999989);
#26=CYLINDRICAL_SURFACE('',#468,6.);
#27=CYLINDRICAL_SURFACE('',#472,6.00000000000001);
#28=CYLINDRICAL_SURFACE('',#476,8.);
#29=CYLINDRICAL_SURFACE('',#481,8.00000000000001);
#30=CIRCLE('',#439,2.40000000000001);
#31=CIRCLE('',#440,2.4);
#32=CIRCLE('',#441,10.);
#33=CIRCLE('',#442,10.);
#34=CIRCLE('',#451,10.);
#35=CIRCLE('',#454,10.);
#36=CIRCLE('',#457,2.4);
#37=CIRCLE('',#459,0.600000000000003);
#38=CIRCLE('',#461,2.40000000000001);
#39=CIRCLE('',#463,0.599999999999989);
#40=CIRCLE('',#465,0.600000000000003);
#41=CIRCLE('',#467,0.599999999999989);
#42=CIRCLE('',#469,6.);
#43=CIRCLE('',#470,6.);
#44=CIRCLE('',#473,6.00000000000001);
#45=CIRCLE('',#474,6.00000000000001);
#46=CIRCLE('',#477,8.);
#47=CIRCLE('',#478,8.);
#48=CIRCLE('',#482,8.00000000000001);
#49=CIRCLE('',#483,8.00000000000001);
#50=ORIENTED_EDGE('',*,*,#138,.F.);
#51=ORIENTED_EDGE('',*,*,#139,.F.);
#52=ORIENTED_EDGE('',*,*,#140,.T.);
#53=ORIENTED_EDGE('',*,*,#141,.T.);
#54=ORIENTED_EDGE('',*,*,#142,.T.);
#55=ORIENTED_EDGE('',*,*,#143,.T.);
#56=ORIENTED_EDGE('',*,*,#144,.T.);
#57=ORIENTED_EDGE('',*,*,#145,.T.);
#58=ORIENTED_EDGE('',*,*,#146,.F.);
#59=ORIENTED_EDGE('',*,*,#147,.F.);
#60=ORIENTED_EDGE('',*,*,#148,.T.);
#61=ORIENTED_EDGE('',*,*,#139,.T.);
#62=ORIENTED_EDGE('',*,*,#149,.F.);
#63=ORIENTED_EDGE('',*,*,#141,.F.);
#64=ORIENTED_EDGE('',*,*,#150,.T.);
#65=ORIENTED_EDGE('',*,*,#151,.T.);
#66=ORIENTED_EDGE('',*,*,#152,.F.);
#67=ORIENTED_EDGE('',*,*,#153,.T.);
#68=ORIENTED_EDGE('',*,*,#154,.T.);
#69=ORIENTED_EDGE('',*,*,#155,.T.);
#70=ORIENTED_EDGE('',*,*,#156,.F.);
#71=ORIENTED_EDGE('',*,*,#151,.F.);
#72=ORIENTED_EDGE('',*,*,#157,.T.);
#73=ORIENTED_EDGE('',*,*,#147,.T.);
#74=ORIENTED_EDGE('',*,*,#148,.F.);
#75=ORIENTED_EDGE('',*,*,#157,.F.);
#76=ORIENTED_EDGE('',*,*,#150,.F.);
#77=ORIENTED_EDGE('',*,*,#140,.F.);
#78=ORIENTED_EDGE('',*,*,#146,.T.);
#79=ORIENTED_EDGE('',*,*,#138,.T.);
#80=ORIENTED_EDGE('',*,*,#149,.T.);
#81=ORIENTED_EDGE('',*,*,#156,.T.);
#82=ORIENTED_EDGE('',*,*,#143,.F.);
#83=ORIENTED_EDGE('',*,*,#158,.F.);
#84=ORIENTED_EDGE('',*,*,#159,.T.);
#85=ORIENTED_EDGE('',*,*,#160,.T.);
#86=ORIENTED_EDGE('',*,*,#144,.F.);
#87=ORIENTED_EDGE('',*,*,#160,.F.);
#88=ORIENTED_EDGE('',*,*,#161,.T.);
#89=ORIENTED_EDGE('',*,*,#162,.T.);
#90=ORIENTED_EDGE('',*,*,#145,.F.);
#91=ORIENTED_EDGE('',*,*,#162,.F.);
#92=ORIENTED_EDGE('',*,*,#163,.T.);
#93=ORIENTED_EDGE('',*,*,#164,.T.);
#94=ORIENTED_EDGE('',*,*,#142,.F.);
#95=ORIENTED_EDGE('',*,*,#164,.F.);
#96=ORIENTED_EDGE('',*,*,#165,.T.);
#97=ORIENTED_EDGE('',*,*,#158,.T.);
#98=ORIENTED_EDGE('',*,*,#159,.F.);
#99=ORIENTED_EDGE('',*,*,#165,.F.);
#100=ORIENTED_EDGE('',*,*,#163,.F.);
#101=ORIENTED_EDGE('',*,*,#161,.F.);
#102=ORIENTED_EDGE('',*,*,#166,.T.);
#103=ORIENTED_EDGE('',*,*,#155,.F.);
#104=ORIENTED_EDGE('',*,*,#166,.F.);
#105=ORIENTED_EDGE('',*,*,#167,.T.);
#106=ORIENTED_EDGE('',*,*,#154,.F.);
#107=ORIENTED_EDGE('',*,*,#167,.F.);
#108=ORIENTED_EDGE('',*,*,#168,.T.);
#109=ORIENTED_EDGE('',*,*,#153,.F.);
#110=ORIENTED_EDGE('',*,*,#169,.T.);
#111=ORIENTED_EDGE('',*,*,#168,.F.);
#112=ORIENTED_EDGE('',*,*,#170,.T.);
#113=ORIENTED_EDGE('',*,*,#152,.T.);
#114=ORIENTED_EDGE('',*,*,#171,.T.);
#115=ORIENTED_EDGE('',*,*,#170,.F.);
#116=ORIENTED_EDGE('',*,*,#172,.T.);
#117=ORIENTED_EDGE('',*,*,#169,.F.);
#118=ORIENTED_EDGE('',*,*,#173,.T.);
#119=ORIENTED_EDGE('',*,*,#171,.F.);
#120=ORIENTED_EDGE('',*,*,#174,.T.);
#121=ORIENTED_EDGE('',*,*,#175,.F.);
#122=ORIENTED_EDGE('',*,*,#172,.F.);
#123=ORIENTED_EDGE('',*,*,#175,.T.);
#124=ORIENTED_EDGE('',*,*,#176,.T.);
#125=ORIENTED_EDGE('',*,*,#177,.F.);
#126=ORIENTED_EDGE('',*,*,#173,.F.);
#127=ORIENTED_EDGE('',*,*,#177,.T.);
#128=ORIENTED_EDGE('',*,*,#178,.T.);
#129=ORIENTED_EDGE('',*,*,#179,.F.);
#130=ORIENTED_EDGE('',*,*,#178,.F.);
#131=ORIENTED_EDGE('',*,*,#174,.F.);
#132=ORIENTED_EDGE('',*,*,#179,.T.);
#133=ORIENTED_EDGE('',*,*,#180,.T.);
#134=ORIENTED_EDGE('',*,*,#181,.F.);
#135=ORIENTED_EDGE('',*,*,#180,.F.);
#136=ORIENTED_EDGE('',*,*,#176,.F.);
#137=ORIENTED_EDGE('',*,*,#181,.T.);
#138=EDGE_CURVE('',#182,#183,#218,.T.);
#139=EDGE_CURVE('',#184,#182,#219,.T.);
#140=EDGE_CURVE('',#184,#185,#220,.T.);
#141=EDGE_CURVE('',#185,#183,#221,.T.);
#142=EDGE_CURVE('',#186,#187,#222,.T.);
#143=EDGE_CURVE('',#187,#188,#223,.T.);
#144=EDGE_CURVE('',#188,#189,#224,.T.);
#145=EDGE_CURVE('',#189,#186,#225,.T.);
#146=EDGE_CURVE('',#190,#182,#226,.T.);
#147=EDGE_CURVE('',#191,#190,#227,.T.);
#148=EDGE_CURVE('',#191,#184,#228,.T.);
#149=EDGE_CURVE('',#183,#192,#229,.T.);
#150=EDGE_CURVE('',#185,#193,#230,.T.);
#151=EDGE_CURVE('',#193,#192,#231,.T.);
#152=EDGE_CURVE('',#194,#194,#30,.T.);
#153=EDGE_CURVE('',#195,#195,#31,.T.);
#154=EDGE_CURVE('',#196,#196,#32,.T.);
#155=EDGE_CURVE('',#197,#197,#33,.T.);
#156=EDGE_CURVE('',#192,#190,#232,.T.);
#157=EDGE_CURVE('',#193,#191,#233,.T.);
#158=EDGE_CURVE('',#198,#187,#234,.T.);
#159=EDGE_CURVE('',#198,#199,#235,.T.);
#160=EDGE_CURVE('',#199,#188,#236,.T.);
#161=EDGE_CURVE('',#199,#200,#237,.T.);
#162=EDGE_CURVE('',#200,#189,#238,.T.);
#163=EDGE_CURVE('',#200,#201,#239,.T.);
#164=EDGE_CURVE('',#201,#186,#240,.T.);
#165=EDGE_CURVE('',#201,#198,#241,.T.);
#166=EDGE_CURVE('',#202,#202,#34,.T.);
#167=EDGE_CURVE('',#203,#203,#35,.T.);
#168=EDGE_CURVE('',#204,#204,#36,.T.);
#169=EDGE_CURVE('',#205,#205,#37,.T.);
#170=EDGE_CURVE('',#206,#206,#38,.T.);
#171=EDGE_CURVE('',#207,#207,#39,.T.);
#172=EDGE_CURVE('',#208,#208,#40,.T.);
#173=EDGE_CURVE('',#209,#209,#41,.T.);
#174=EDGE_CURVE('',#210,#210,#42,.T.);
#175=EDGE_CURVE('',#211,#211,#43,.T.);
#176=EDGE_CURVE('',#212,#212,#44,.T.);
#177=EDGE_CURVE('',#213,#213,#45,.T.);
#178=EDGE_CURVE('',#214,#214,#46,.T.);
#179=EDGE_CURVE('',#215,#215,#47,.T.);
#180=EDGE_CURVE('',#216,#216,#48,.T.);
#181=EDGE_CURVE('',#217,#217,#49,.T.);
#182=VERTEX_POINT('',#617);
#183=VERTEX_POINT('',#618);
#184=VERTEX_POINT('',#620);
#185=VERTEX_POINT('',#622);
#186=VERTEX_POINT('',#625);
#187=VERTEX_POINT('',#626);
#188=VERTEX_POINT('',#628);
#189=VERTEX_POINT('',#630);
#190=VERTEX_POINT('',#634);
#191=VERTEX_POINT('',#636);
#192=VERTEX_POINT('',#640);
#193=VERTEX_POINT('',#642);
#194=VERTEX_POINT('',#646);
#195=VERTEX_POINT('',#648);
#196=VERTEX_POINT('',#650);
#197=VERTEX_POINT('',#652);
#198=VERTEX_POINT('',#659);
#199=VERTEX_POINT('',#661);
#200=VERTEX_POINT('',#665);
#201=VERTEX_POINT('',#669);
#202=VERTEX_POINT('',#676);
#203=VERTEX_POINT('',#680);
#204=VERTEX_POINT('',#684);
#205=VERTEX_POINT('',#687);
#206=VERTEX_POINT('',#690);
#207=VERTEX_POINT('',#693);
#208=VERTEX_POINT('',#696);
#209=VERTEX_POINT('',#699);
#210=VERTEX_POINT('',#702);
#211=VERTEX_POINT('',#704);
#212=VERTEX_POINT('',#708);
#213=VERTEX_POINT('',#710);
#214=VERTEX_POINT('',#714);
#215=VERTEX_POINT('',#716);
#216=VERTEX_POINT('',#721);
#217=VERTEX_POINT('',#723);
#218=LINE('',#616,#242);
#219=LINE('',#619,#243);
#220=LINE('',#621,#244);
#221=LINE('',#623,#245);
#222=LINE('',#624,#246);
#223=LINE('',#627,#247);
#224=LINE('',#629,#248);
#225=LINE('',#631,#249);
#226=LINE('',#633,#250);
#227=LINE('',#635,#251);
#228=LINE('',#637,#252);
#229=LINE('',#639,#253);
#230=LINE('',#641,#254);
#231=LINE('',#643,#255);
#232=LINE('',#653,#256);
#233=LINE('',#654,#257);
#234=LINE('',#658,#258);
#235=LINE('',#660,#259);
#236=LINE('',#662,#260);
#237=LINE('',#664,#261);
#238=LINE('',#666,#262);
#239=LINE('',#668,#263);
#240=LINE('',#670,#264);
#241=LINE('',#672,#265);
#242=VECTOR('',#490,1000.);
#243=VECTOR('',#491,1000.);
#244=VECTOR('',#492,1000.);
#245=VECTOR('',#493,1000.);
#246=VECTOR('',#494,1000.);
#247=VECTOR('',#495,1000.);
#248=VECTOR('',#496,1000.);
#249=VECTOR('',#497,1000.);
#250=VECTOR('',#500,1000.);
#251=VECTOR('',#501,1000.);
#252=VECTOR('',#502,1000.);
#253=VECTOR('',#505,1000.);
#254=VECTOR('',#506,1000.);
#255=VECTOR('',#507,1000.);
#256=VECTOR('',#518,1000.);
#257=VECTOR('',#519,1000.);
#258=VECTOR('',#526,1000.);
#259=VECTOR('',#527,1000.);
#260=VECTOR('',#528,1000.);
#261=VECTOR('',#531,1000.);
#262=VECTOR('',#532,1000.);
#263=VECTOR('',#535,1000.);
#264=VECTOR('',#536,1000.);
#265=VECTOR('',#539,1000.);
#266=EDGE_LOOP('',(#50,#51,#52,#53));
#267=EDGE_LOOP('',(#54,#55,#56,#57));
#268=EDGE_LOOP('',(#58,#59,#60,#61));
#269=EDGE_LOOP('',(#62,#63,#64,#65));
#270=EDGE_LOOP('',(#66));
#271=EDGE_LOOP('',(#67));
#272=EDGE_LOOP('',(#68));
#273=EDGE_LOOP('',(#69));
#274=EDGE_LOOP('',(#70,#71,#72,#73));
#275=EDGE_LOOP('',(#74,#75,#76,#77));
#276=EDGE_LOOP('',(#78,#79,#80,#81));
#277=EDGE_LOOP('',(#82,#83,#84,#85));
#278=EDGE_LOOP('',(#86,#87,#88,#89));
#279=EDGE_LOOP('',(#90,#91,#92,#93));
#280=EDGE_LOOP('',(#94,#95,#96,#97));
#281=EDGE_LOOP('',(#98,#99,#100,#101));
#282=EDGE_LOOP('',(#102));
#283=EDGE_LOOP('',(#103));
#284=EDGE_LOOP('',(#104));
#285=EDGE_LOOP('',(#105));
#286=EDGE_LOOP('',(#106));
#287=EDGE_LOOP('',(#107));
#288=EDGE_LOOP('',(#108));
#289=EDGE_LOOP('',(#109));
#290=EDGE_LOOP('',(#110));
#291=EDGE_LOOP('',(#111));
#292=EDGE_LOOP('',(#112));
#293=EDGE_LOOP('',(#113));
#294=EDGE_LOOP('',(#114));
#295=EDGE_LOOP('',(#115));
#296=EDGE_LOOP('',(#116));
#297=EDGE_LOOP('',(#117));
#298=EDGE_LOOP('',(#118));
#299=EDGE_LOOP('',(#119));
#300=EDGE_LOOP('',(#120));
#301=EDGE_LOOP('',(#121));
#302=EDGE_LOOP('',(#122));
#303=EDGE_LOOP('',(#123));
#304=EDGE_LOOP('',(#124));
#305=EDGE_LOOP('',(#125));
#306=EDGE_LOOP('',(#126));
#307=EDGE_LOOP('',(#127));
#308=EDGE_LOOP('',(#128));
#309=EDGE_LOOP('',(#129));
#310=EDGE_LOOP('',(#130));
#311=EDGE_LOOP('',(#131));
#312=EDGE_LOOP('',(#132));
#313=EDGE_LOOP('',(#133));
#314=EDGE_LOOP('',(#134));
#315=EDGE_LOOP('',(#135));
#316=EDGE_LOOP('',(#136));
#317=EDGE_LOOP('',(#137));
#318=FACE_BOUND('',#266,.T.);
#319=FACE_BOUND('',#267,.T.);
#320=FACE_BOUND('',#268,.T.);
#321=FACE_BOUND('',#269,.T.);
#322=FACE_BOUND('',#270,.T.);
#323=FACE_BOUND('',#271,.T.);
#324=FACE_BOUND('',#272,.T.);
#325=FACE_BOUND('',#273,.T.);
#326=FACE_BOUND('',#274,.T.);
#327=FACE_BOUND('',#275,.T.);
#328=FACE_BOUND('',#276,.T.);
#329=FACE_BOUND('',#277,.T.);
#330=FACE_BOUND('',#278,.T.);
#331=FACE_BOUND('',#279,.T.);
#332=FACE_BOUND('',#280,.T.);
#333=FACE_BOUND('',#281,.T.);
#334=FACE_BOUND('',#282,.T.);
#335=FACE_BOUND('',#283,.T.);
#336=FACE_BOUND('',#284,.T.);
#337=FACE_BOUND('',#285,.T.);
#338=FACE_BOUND('',#286,.T.);
#339=FACE_BOUND('',#287,.T.);
#340=FACE_BOUND('',#288,.T.);
#341=FACE_BOUND('',#289,.T.);
#342=FACE_BOUND('',#290,.T.);
#343=FACE_BOUND('',#291,.T.);
#344=FACE_BOUND('',#292,.T.);
#345=FACE_BOUND('',#293,.T.);
#346=FACE_BOUND('',#294,.T.);
#347=FACE_BOUND('',#295,.T.);
#348=FACE_BOUND('',#296,.T.);
#349=FACE_BOUND('',#297,.T.);
#350=FACE_BOUND('',#298,.T.);
#351=FACE_BOUND('',#299,.T.);
#352=FACE_BOUND('',#300,.T.);
#353=FACE_BOUND('',#301,.T.);
#354=FACE_BOUND('',#302,.T.);
#355=FACE_BOUND('',#303,.T.);
#356=FACE_BOUND('',#304,.T.);
#357=FACE_BOUND('',#305,.T.);
#358=FACE_BOUND('',#306,.T.);
#359=FACE_BOUND('',#307,.T.);
#360=FACE_BOUND('',#308,.T.);
#361=FACE_BOUND('',#309,.T.);
#362=FACE_BOUND('',#310,.T.);
#363=FACE_BOUND('',#311,.T.);
#364=FACE_BOUND('',#312,.T.);
#365=FACE_BOUND('',#313,.T.);
#366=FACE_BOUND('',#314,.T.);
#367=FACE_BOUND('',#315,.T.);
#368=FACE_BOUND('',#316,.T.);
#369=FACE_BOUND('',#317,.T.);
#370=PLANE('',#435);
#371=PLANE('',#436);
#372=PLANE('',#437);
#373=PLANE('',#438);
#374=PLANE('',#443);
#375=PLANE('',#444);
#376=PLANE('',#445);
#377=PLANE('',#446);
#378=PLANE('',#447);
#379=PLANE('',#448);
#380=PLANE('',#449);
#381=PLANE('',#452);
#382=PLANE('',#455);
#383=PLANE('',#458);
#384=PLANE('',#462);
#385=PLANE('',#471);
#386=PLANE('',#475);
#387=PLANE('',#479);
#388=PLANE('',#480);
#389=PLANE('',#484);
#390=PLANE('',#485);
#391=ADVANCED_FACE('',(#318,#319),#370,.T.);
#392=ADVANCED_FACE('',(#320),#371,.T.);
#393=ADVANCED_FACE('',(#321),#372,.T.);
#394=ADVANCED_FACE('',(#322,#323,#324,#325,#326),#373,.T.);
#395=ADVANCED_FACE('',(#327),#374,.F.);
#396=ADVANCED_FACE('',(#328),#375,.T.);
#397=ADVANCED_FACE('',(#329),#376,.T.);
#398=ADVANCED_FACE('',(#330),#377,.T.);
#399=ADVANCED_FACE('',(#331),#378,.T.);
#400=ADVANCED_FACE('',(#332),#379,.T.);
#401=ADVANCED_FACE('',(#333),#380,.F.);
#402=ADVANCED_FACE('',(#334,#335),#20,.F.);
#403=ADVANCED_FACE('',(#336),#381,.F.);
#404=ADVANCED_FACE('',(#337,#338),#21,.F.);
#405=ADVANCED_FACE('',(#339),#382,.F.);
#406=ADVANCED_FACE('',(#340,#341),#22,.T.);
#407=ADVANCED_FACE('',(#342,#343),#383,.F.);
#408=ADVANCED_FACE('',(#344,#345),#23,.T.);
#409=ADVANCED_FACE('',(#346,#347),#384,.F.);
#410=ADVANCED_FACE('',(#348,#349),#24,.T.);
#411=ADVANCED_FACE('',(#350,#351),#25,.T.);
#412=ADVANCED_FACE('',(#352,#353),#26,.T.);
#413=ADVANCED_FACE('',(#354,#355),#385,.T.);
#414=ADVANCED_FACE('',(#356,#357),#27,.T.);
#415=ADVANCED_FACE('',(#358,#359),#386,.T.);
#416=ADVANCED_FACE('',(#360,#361),#28,.T.);
#417=ADVANCED_FACE('',(#362),#387,.F.);
#418=ADVANCED_FACE('',(#363,#364),#388,.T.);
#419=ADVANCED_FACE('',(#365,#366),#29,.T.);
#420=ADVANCED_FACE('',(#367),#389,.F.);
#421=ADVANCED_FACE('',(#368,#369),#390,.T.);
#422=CLOSED_SHELL('',(#391,#392,#393,#394,#395,#396,#397,#398,#399,#400,
#401,#402,#403,#404,#405,#406,#407,#408,#409,#410,#411,#412,#413,#414,#415,
#416,#417,#418,#419,#420,#421));
#423=STYLED_ITEM('',(#424),#431);
#424=PRESENTATION_STYLE_ASSIGNMENT((#425));
#425=SURFACE_STYLE_USAGE(.BOTH.,#426);
#426=SURFACE_SIDE_STYLE('',(#427));
#427=SURFACE_STYLE_FILL_AREA(#428);
#428=FILL_AREA_STYLE('',(#429));
#429=FILL_AREA_STYLE_COLOUR('',#430);
#430=COLOUR_RGB('',0.645180702209473,0.678915679454803,0.699999988079071);
#431=MANIFOLD_SOLID_BREP('',#422);
#432=SHAPE_DEFINITION_REPRESENTATION(#732,#433);
#433=SHAPE_REPRESENTATION('SNP 1012 S',(#434),#727);
#434=AXIS2_PLACEMENT_3D('',#614,#486,#487);
#435=AXIS2_PLACEMENT_3D('',#615,#488,#489);
#436=AXIS2_PLACEMENT_3D('',#632,#498,#499);
#437=AXIS2_PLACEMENT_3D('',#638,#503,#504);
#438=AXIS2_PLACEMENT_3D('',#644,#508,#509);
#439=AXIS2_PLACEMENT_3D('',#645,#510,#511);
#440=AXIS2_PLACEMENT_3D('',#647,#512,#513);
#441=AXIS2_PLACEMENT_3D('',#649,#514,#515);
#442=AXIS2_PLACEMENT_3D('',#651,#516,#517);
#443=AXIS2_PLACEMENT_3D('',#655,#520,#521);
#444=AXIS2_PLACEMENT_3D('',#656,#522,#523);
#445=AXIS2_PLACEMENT_3D('',#657,#524,#525);
#446=AXIS2_PLACEMENT_3D('',#663,#529,#530);
#447=AXIS2_PLACEMENT_3D('',#667,#533,#534);
#448=AXIS2_PLACEMENT_3D('',#671,#537,#538);
#449=AXIS2_PLACEMENT_3D('',#673,#540,#541);
#450=AXIS2_PLACEMENT_3D('',#674,#542,#543);
#451=AXIS2_PLACEMENT_3D('',#675,#544,#545);
#452=AXIS2_PLACEMENT_3D('',#677,#546,#547);
#453=AXIS2_PLACEMENT_3D('',#678,#548,#549);
#454=AXIS2_PLACEMENT_3D('',#679,#550,#551);
#455=AXIS2_PLACEMENT_3D('',#681,#552,#553);
#456=AXIS2_PLACEMENT_3D('',#682,#554,#555);
#457=AXIS2_PLACEMENT_3D('',#683,#556,#557);
#458=AXIS2_PLACEMENT_3D('',#685,#558,#559);
#459=AXIS2_PLACEMENT_3D('',#686,#560,#561);
#460=AXIS2_PLACEMENT_3D('',#688,#562,#563);
#461=AXIS2_PLACEMENT_3D('',#689,#564,#565);
#462=AXIS2_PLACEMENT_3D('',#691,#566,#567);
#463=AXIS2_PLACEMENT_3D('',#692,#568,#569);
#464=AXIS2_PLACEMENT_3D('',#694,#570,#571);
#465=AXIS2_PLACEMENT_3D('',#695,#572,#573);
#466=AXIS2_PLACEMENT_3D('',#697,#574,#575);
#467=AXIS2_PLACEMENT_3D('',#698,#576,#577);
#468=AXIS2_PLACEMENT_3D('',#700,#578,#579);
#469=AXIS2_PLACEMENT_3D('',#701,#580,#581);
#470=AXIS2_PLACEMENT_3D('',#703,#582,#583);
#471=AXIS2_PLACEMENT_3D('',#705,#584,#585);
#472=AXIS2_PLACEMENT_3D('',#706,#586,#587);
#473=AXIS2_PLACEMENT_3D('',#707,#588,#589);
#474=AXIS2_PLACEMENT_3D('',#709,#590,#591);
#475=AXIS2_PLACEMENT_3D('',#711,#592,#593);
#476=AXIS2_PLACEMENT_3D('',#712,#594,#595);
#477=AXIS2_PLACEMENT_3D('',#713,#596,#597);
#478=AXIS2_PLACEMENT_3D('',#715,#598,#599);
#479=AXIS2_PLACEMENT_3D('',#717,#600,#601);
#480=AXIS2_PLACEMENT_3D('',#718,#602,#603);
#481=AXIS2_PLACEMENT_3D('',#719,#604,#605);
#482=AXIS2_PLACEMENT_3D('',#720,#606,#607);
#483=AXIS2_PLACEMENT_3D('',#722,#608,#609);
#484=AXIS2_PLACEMENT_3D('',#724,#610,#611);
#485=AXIS2_PLACEMENT_3D('',#725,#612,#613);
#486=DIRECTION('',(0.,0.,1.));
#487=DIRECTION('',(1.,0.,0.));
#488=DIRECTION('',(0.,0.,-1.));
#489=DIRECTION('',(-1.,0.,0.));
#490=DIRECTION('',(1.,0.,0.));
#491=DIRECTION('',(0.,-1.,0.));
#492=DIRECTION('',(1.,0.,0.));
#493=DIRECTION('',(0.,-1.,0.));
#494=DIRECTION('',(-1.24402480348934E-16,-1.,0.));
#495=DIRECTION('',(1.,0.,0.));
#496=DIRECTION('',(-1.24402480348934E-16,1.,0.));
#497=DIRECTION('',(-1.,0.,0.));
#498=DIRECTION('',(-1.,0.,0.));
#499=DIRECTION('',(0.,0.,1.));
#500=DIRECTION('',(0.,0.,-1.));
#501=DIRECTION('',(0.,-1.,0.));
#502=DIRECTION('',(0.,0.,-1.));
#503=DIRECTION('',(1.,0.,0.));
#504=DIRECTION('',(0.,0.,-1.));
#505=DIRECTION('',(0.,0.,1.));
#506=DIRECTION('',(0.,0.,1.));
#507=DIRECTION('',(0.,-1.,0.));
#508=DIRECTION('',(0.,0.,1.));
#509=DIRECTION('',(1.,0.,0.));
#510=DIRECTION('',(0.,0.,1.));
#511=DIRECTION('',(1.,0.,0.));
#512=DIRECTION('',(0.,0.,-1.));
#513=DIRECTION('',(0.,1.,0.));
#514=DIRECTION('',(0.,0.,-1.));
#515=DIRECTION('',(0.,1.,0.));
#516=DIRECTION('',(0.,0.,-1.));
#517=DIRECTION('',(0.,1.,0.));
#518=DIRECTION('',(-1.,0.,0.));
#519=DIRECTION('',(-1.,0.,0.));
#520=DIRECTION('',(0.,-1.,0.));
#521=DIRECTION('',(0.,0.,-1.));
#522=DIRECTION('',(0.,-1.,0.));
#523=DIRECTION('',(0.,0.,-1.));
#524=DIRECTION('',(0.,1.,0.));
#525=DIRECTION('',(0.,0.,1.));
#526=DIRECTION('',(0.,0.,-1.));
#527=DIRECTION('',(1.,0.,0.));
#528=DIRECTION('',(0.,0.,-1.));
#529=DIRECTION('',(-1.,-1.24402480348934E-16,0.));
#530=DIRECTION('',(1.24402480348934E-16,-1.,0.));
#531=DIRECTION('',(-1.24402480348934E-16,1.,0.));
#532=DIRECTION('',(0.,0.,-1.));
#533=DIRECTION('',(0.,-1.,0.));
#534=DIRECTION('',(0.,0.,-1.));
#535=DIRECTION('',(-1.,0.,0.));
#536=DIRECTION('',(0.,0.,-1.));
#537=DIRECTION('',(1.,-1.24402480348934E-16,0.));
#538=DIRECTION('',(1.24402480348934E-16,1.,0.));
#539=DIRECTION('',(-1.24402480348934E-16,-1.,0.));
#540=DIRECTION('',(0.,0.,1.));
#541=DIRECTION('',(1.,0.,0.));
#542=DIRECTION('',(0.,0.,1.));
#543=DIRECTION('',(1.,0.,0.));
#544=DIRECTION('',(0.,0.,-1.));
#545=DIRECTION('',(0.,1.,0.));
#546=DIRECTION('',(0.,0.,-1.));
#547=DIRECTION('',(-1.,0.,0.));
#548=DIRECTION('',(0.,0.,1.));
#549=DIRECTION('',(1.,0.,0.));
#550=DIRECTION('',(0.,0.,-1.));
#551=DIRECTION('',(0.,1.,0.));
#552=DIRECTION('',(0.,0.,-1.));
#553=DIRECTION('',(-1.,0.,0.));
#554=DIRECTION('',(0.,0.,-1.));
#555=DIRECTION('',(-1.,0.,0.));
#556=DIRECTION('',(0.,0.,-1.));
#557=DIRECTION('',(0.,1.,0.));
#558=DIRECTION('',(0.,0.,-1.));
#559=DIRECTION('',(-1.,0.,0.));
#560=DIRECTION('',(0.,0.,-1.));
#561=DIRECTION('',(0.,1.,0.));
#562=DIRECTION('',(0.,0.,-1.));
#563=DIRECTION('',(-1.,0.,0.));
#564=DIRECTION('',(0.,0.,-1.));
#565=DIRECTION('',(0.,1.,0.));
#566=DIRECTION('',(0.,0.,-1.));
#567=DIRECTION('',(-1.,0.,0.));
#568=DIRECTION('',(0.,0.,-1.));
#569=DIRECTION('',(0.,1.,0.));
#570=DIRECTION('',(0.,0.,-1.));
#571=DIRECTION('',(-1.,0.,0.));
#572=DIRECTION('',(0.,0.,-1.));
#573=DIRECTION('',(0.,1.,0.));
#574=DIRECTION('',(0.,0.,-1.));
#575=DIRECTION('',(-1.,0.,0.));
#576=DIRECTION('',(0.,0.,-1.));
#577=DIRECTION('',(0.,1.,0.));
#578=DIRECTION('',(0.,0.,-1.));
#579=DIRECTION('',(-1.,0.,0.));
#580=DIRECTION('',(0.,0.,-1.));
#581=DIRECTION('',(0.,1.,0.));
#582=DIRECTION('',(0.,0.,-1.));
#583=DIRECTION('',(0.,1.,0.));
#584=DIRECTION('',(0.,0.,-1.));
#585=DIRECTION('',(-1.,0.,0.));
#586=DIRECTION('',(0.,0.,-1.));
#587=DIRECTION('',(-1.,0.,0.));
#588=DIRECTION('',(0.,0.,-1.));
#589=DIRECTION('',(0.,1.,0.));
#590=DIRECTION('',(0.,0.,-1.));
#591=DIRECTION('',(0.,1.,0.));
#592=DIRECTION('',(0.,0.,-1.));
#593=DIRECTION('',(-1.,0.,0.));
#594=DIRECTION('',(0.,0.,-1.));
#595=DIRECTION('',(-1.,0.,0.));
#596=DIRECTION('',(0.,0.,-1.));
#597=DIRECTION('',(0.,1.,0.));
#598=DIRECTION('',(0.,0.,-1.));
#599=DIRECTION('',(0.,1.,0.));
#600=DIRECTION('',(0.,0.,-1.));
#601=DIRECTION('',(-1.,0.,0.));
#602=DIRECTION('',(0.,0.,-1.));
#603=DIRECTION('',(-1.,0.,0.));
#604=DIRECTION('',(0.,0.,-1.));
#605=DIRECTION('',(-1.,0.,0.));
#606=DIRECTION('',(0.,0.,-1.));
#607=DIRECTION('',(0.,1.,0.));
#608=DIRECTION('',(0.,0.,-1.));
#609=DIRECTION('',(0.,1.,0.));
#610=DIRECTION('',(0.,0.,-1.));
#611=DIRECTION('',(-1.,0.,0.));
#612=DIRECTION('',(0.,0.,-1.));
#613=DIRECTION('',(-1.,0.,0.));
#614=CARTESIAN_POINT('',(0.,0.,0.));
#615=CARTESIAN_POINT('',(-31.,255.,-31.));
#616=CARTESIAN_POINT('',(-31.,0.,-31.));
#617=CARTESIAN_POINT('',(-31.,0.,-31.));
#618=CARTESIAN_POINT('',(31.,0.,-31.));
#619=CARTESIAN_POINT('',(-31.,255.,-31.));
#620=CARTESIAN_POINT('',(-31.,255.,-31.));
#621=CARTESIAN_POINT('',(-31.,255.,-31.));
#622=CARTESIAN_POINT('',(31.,255.,-31.));
#623=CARTESIAN_POINT('',(31.,255.,-31.));
#624=CARTESIAN_POINT('',(-4.49999999999998,253.,-31.));
#625=CARTESIAN_POINT('',(-4.49999999999998,253.,-31.));
#626=CARTESIAN_POINT('',(-4.50000000000001,2.,-31.));
#627=CARTESIAN_POINT('',(-4.50000000000002,2.,-31.));
#628=CARTESIAN_POINT('',(4.50000000000002,2.,-31.));
#629=CARTESIAN_POINT('',(4.50000000000002,2.,-31.));
#630=CARTESIAN_POINT('',(4.49999999999998,253.,-31.));
#631=CARTESIAN_POINT('',(4.49999999999998,253.,-31.));
#632=CARTESIAN_POINT('',(-31.,255.,31.));
#633=CARTESIAN_POINT('',(-31.,0.,31.));
#634=CARTESIAN_POINT('',(-31.,0.,31.));
#635=CARTESIAN_POINT('',(-31.,255.,31.));
#636=CARTESIAN_POINT('',(-31.,255.,31.));
#637=CARTESIAN_POINT('',(-31.,255.,31.));
#638=CARTESIAN_POINT('',(31.,255.,-31.));
#639=CARTESIAN_POINT('',(31.,0.,-31.));
#640=CARTESIAN_POINT('',(31.,0.,31.));
#641=CARTESIAN_POINT('',(31.,255.,-31.));
#642=CARTESIAN_POINT('',(31.,255.,31.));
#643=CARTESIAN_POINT('',(31.,255.,31.));
#644=CARTESIAN_POINT('',(31.,255.,31.));
#645=CARTESIAN_POINT('',(0.,217.5,31.));
#646=CARTESIAN_POINT('',(2.40000000000001,217.5,31.));
#647=CARTESIAN_POINT('',(0.,37.5,31.));
#648=CARTESIAN_POINT('',(0.,39.9,31.));
#649=CARTESIAN_POINT('',(0.,237.5,31.));
#650=CARTESIAN_POINT('',(0.,247.5,31.));
#651=CARTESIAN_POINT('',(0.,17.5,31.));
#652=CARTESIAN_POINT('',(0.,27.5,31.));
#653=CARTESIAN_POINT('',(31.,0.,31.));
#654=CARTESIAN_POINT('',(31.,255.,31.));
#655=CARTESIAN_POINT('',(0.,255.,0.));
#656=CARTESIAN_POINT('',(0.,0.,0.));
#657=CARTESIAN_POINT('',(-4.50000000000002,2.,-21.));
#658=CARTESIAN_POINT('',(-4.50000000000002,2.,-21.));
#659=CARTESIAN_POINT('',(-4.50000000000002,2.,-21.));
#660=CARTESIAN_POINT('',(-4.50000000000002,2.,-21.));
#661=CARTESIAN_POINT('',(4.50000000000002,2.,-21.));
#662=CARTESIAN_POINT('',(4.50000000000002,2.,-21.));
#663=CARTESIAN_POINT('',(4.50000000000002,2.,-21.));
#664=CARTESIAN_POINT('',(4.50000000000002,2.,-21.));
#665=CARTESIAN_POINT('',(4.49999999999998,253.,-21.));
#666=CARTESIAN_POINT('',(4.49999999999998,253.,-21.));
#667=CARTESIAN_POINT('',(4.49999999999998,253.,-21.));
#668=CARTESIAN_POINT('',(4.49999999999998,253.,-21.));
#669=CARTESIAN_POINT('',(-4.49999999999998,253.,-21.));
#670=CARTESIAN_POINT('',(-4.49999999999998,253.,-21.));
#671=CARTESIAN_POINT('',(-4.49999999999998,253.,-21.));
#672=CARTESIAN_POINT('',(-4.49999999999998,253.,-21.));
#673=CARTESIAN_POINT('',(0.,0.,-21.));
#674=CARTESIAN_POINT('',(0.,17.5,29.1416485645335));
#675=CARTESIAN_POINT('',(0.,17.5,29.1416485645335));
#676=CARTESIAN_POINT('',(0.,27.5,29.1416485645335));
#677=CARTESIAN_POINT('',(0.,17.5,29.1416485645335));
#678=CARTESIAN_POINT('',(0.,237.5,29.1416485645335));
#679=CARTESIAN_POINT('',(0.,237.5,29.1416485645335));
#680=CARTESIAN_POINT('',(0.,247.5,29.1416485645335));
#681=CARTESIAN_POINT('',(0.,237.5,29.1416485645335));
#682=CARTESIAN_POINT('',(0.,37.5,42.8));
#683=CARTESIAN_POINT('',(0.,37.5,42.8));
#684=CARTESIAN_POINT('',(0.,39.9,42.8));
#685=CARTESIAN_POINT('',(0.,37.5,42.8));
#686=CARTESIAN_POINT('',(0.,37.5,42.8));
#687=CARTESIAN_POINT('',(0.,38.1,42.8));
#688=CARTESIAN_POINT('',(0.,217.5,42.8));
#689=CARTESIAN_POINT('',(0.,217.5,42.8));
#690=CARTESIAN_POINT('',(0.,219.9,42.8));
#691=CARTESIAN_POINT('',(0.,217.5,42.8));
#692=CARTESIAN_POINT('',(0.,217.5,42.8));
#693=CARTESIAN_POINT('',(0.,218.1,42.8));
#694=CARTESIAN_POINT('',(0.,37.5,192.8));
#695=CARTESIAN_POINT('',(0.,37.5,192.8));
#696=CARTESIAN_POINT('',(0.,38.1,192.8));
#697=CARTESIAN_POINT('',(0.,217.5,192.8));
#698=CARTESIAN_POINT('',(0.,217.5,192.8));
#699=CARTESIAN_POINT('',(0.,218.1,192.8));
#700=CARTESIAN_POINT('',(0.,37.5,218.8));
#701=CARTESIAN_POINT('',(0.,37.5,218.8));
#702=CARTESIAN_POINT('',(0.,43.5,218.8));
#703=CARTESIAN_POINT('',(0.,37.5,192.8));
#704=CARTESIAN_POINT('',(0.,43.5,192.8));
#705=CARTESIAN_POINT('',(0.,37.5,192.8));
#706=CARTESIAN_POINT('',(0.,217.5,218.8));
#707=CARTESIAN_POINT('',(0.,217.5,218.8));
#708=CARTESIAN_POINT('',(0.,223.5,218.8));
#709=CARTESIAN_POINT('',(0.,217.5,192.8));
#710=CARTESIAN_POINT('',(0.,223.5,192.8));
#711=CARTESIAN_POINT('',(0.,217.5,192.8));
#712=CARTESIAN_POINT('',(0.,37.5,220.8));
#713=CARTESIAN_POINT('',(0.,37.5,220.8));
#714=CARTESIAN_POINT('',(0.,45.5,220.8));
#715=CARTESIAN_POINT('',(0.,37.5,218.8));
#716=CARTESIAN_POINT('',(0.,45.5,218.8));
#717=CARTESIAN_POINT('',(0.,37.5,220.8));
#718=CARTESIAN_POINT('',(0.,37.5,218.8));
#719=CARTESIAN_POINT('',(0.,217.5,220.8));
#720=CARTESIAN_POINT('',(0.,217.5,220.8));
#721=CARTESIAN_POINT('',(0.,225.5,220.8));
#722=CARTESIAN_POINT('',(0.,217.5,218.8));
#723=CARTESIAN_POINT('',(0.,225.5,218.8));
#724=CARTESIAN_POINT('',(0.,217.5,220.8));
#725=CARTESIAN_POINT('',(0.,217.5,218.8));
#726=MECHANICAL_DESIGN_GEOMETRIC_PRESENTATION_REPRESENTATION('',(#423),
#727);
#727=(
GEOMETRIC_REPRESENTATION_CONTEXT(3)
GLOBAL_UNCERTAINTY_ASSIGNED_CONTEXT((#728))
GLOBAL_UNIT_ASSIGNED_CONTEXT((#731,#730,#729))
REPRESENTATION_CONTEXT('SNP 1012 S','TOP_LEVEL_ASSEMBLY_PART')
);
#728=UNCERTAINTY_MEASURE_WITH_UNIT(LENGTH_MEASURE(0.005),#731,
'DISTANCE_ACCURACY_VALUE','Maximum Tolerance applied to model');
#729=(
NAMED_UNIT(*)
SI_UNIT($,.STERADIAN.)
SOLID_ANGLE_UNIT()
);
#730=(
NAMED_UNIT(*)
PLANE_ANGLE_UNIT()
SI_UNIT($,.RADIAN.)
);
#731=(
LENGTH_UNIT()
NAMED_UNIT(*)
SI_UNIT(.MILLI.,.METRE.)
);
#732=PRODUCT_DEFINITION_SHAPE('','',#733);
#733=PRODUCT_DEFINITION('','',#735,#734);
#734=PRODUCT_DEFINITION_CONTEXT('',#741,'design');
#735=PRODUCT_DEFINITION_FORMATION_WITH_SPECIFIED_SOURCE('','',#737,
 .NOT_KNOWN.);
#736=PRODUCT_RELATED_PRODUCT_CATEGORY('','',(#737));
#737=PRODUCT('SNP 1012 S','SNP 1012 S','SNP 1012 S',(#739));
#738=PRODUCT_CATEGORY('','');
#739=PRODUCT_CONTEXT('',#741,'mechanical');
#740=APPLICATION_PROTOCOL_DEFINITION('international standard',
'automotive_design',2010,#741);
#741=APPLICATION_CONTEXT(
'core data for automotive mechanical design processes');
ENDSEC;
END-ISO-10303-21;
