ISO-10303-21;
HEADER;
/* Generated by software containing ST-Developer
 * from STEP Tools, Inc. (www.steptools.com) 
 */
/* OPTION: strings as raw bytes, not using required /X/ escapes */

FILE_DESCRIPTION(
/* description */ ('Unknown'),
/* implementation_level */ '2;1');

FILE_NAME(
/* name */ 'SNP 1013 P',
/* time_stamp */ '2020-06-10T11:45:37+02:00',
/* author */ ('Unknown'),
/* organization */ ('Unknown'),
/* preprocessor_version */ 'ST-DEVELOPER v16.7',
/* originating_system */ 'Solid Edge',
/* authorisation */ 'Unknown');

FILE_SCHEMA (('AUTOMOTIVE_DESIGN {1 0 10303 214 3 1 1}'));
ENDSEC;

DATA;
#10=PROPERTY_DEFINITION_REPRESENTATION(#14,#12);
#11=PROPERTY_DEFINITION_REPRESENTATION(#15,#13);
#12=REPRESENTATION('',(#16),#487);
#13=REPRESENTATION('',(#17),#487);
#14=PROPERTY_DEFINITION('pmi validation property','',#492);
#15=PROPERTY_DEFINITION('pmi validation property','',#492);
#16=VALUE_REPRESENTATION_ITEM('number of annotations',COUNT_MEASURE(0.));
#17=VALUE_REPRESENTATION_ITEM('number of views',COUNT_MEASURE(0.));
#18=SHAPE_REPRESENTATION_RELATIONSHIP('','',#301,#19);
#19=ADVANCED_BREP_SHAPE_REPRESENTATION('',(#299),#487);
#20=CYLINDRICAL_SURFACE('',#316,6.74999999999998);
#21=CYLINDRICAL_SURFACE('',#319,8.50000000000001);
#22=CYLINDRICAL_SURFACE('',#323,6.75);
#23=CYLINDRICAL_SURFACE('',#326,8.5);
#24=CIRCLE('',#306,8.5);
#25=CIRCLE('',#307,8.50000000000001);
#26=CIRCLE('',#317,6.74999999999998);
#27=CIRCLE('',#318,6.74999999999998);
#28=CIRCLE('',#320,8.50000000000001);
#29=CIRCLE('',#324,6.75);
#30=CIRCLE('',#325,6.75);
#31=CIRCLE('',#327,8.5);
#32=ORIENTED_EDGE('',*,*,#96,.F.);
#33=ORIENTED_EDGE('',*,*,#97,.F.);
#34=ORIENTED_EDGE('',*,*,#98,.F.);
#35=ORIENTED_EDGE('',*,*,#99,.F.);
#36=ORIENTED_EDGE('',*,*,#100,.F.);
#37=ORIENTED_EDGE('',*,*,#101,.F.);
#38=ORIENTED_EDGE('',*,*,#102,.T.);
#39=ORIENTED_EDGE('',*,*,#103,.T.);
#40=ORIENTED_EDGE('',*,*,#104,.F.);
#41=ORIENTED_EDGE('',*,*,#103,.F.);
#42=ORIENTED_EDGE('',*,*,#105,.T.);
#43=ORIENTED_EDGE('',*,*,#106,.T.);
#44=ORIENTED_EDGE('',*,*,#107,.F.);
#45=ORIENTED_EDGE('',*,*,#108,.T.);
#46=ORIENTED_EDGE('',*,*,#109,.F.);
#47=ORIENTED_EDGE('',*,*,#106,.F.);
#48=ORIENTED_EDGE('',*,*,#110,.T.);
#49=ORIENTED_EDGE('',*,*,#111,.T.);
#50=ORIENTED_EDGE('',*,*,#112,.F.);
#51=ORIENTED_EDGE('',*,*,#111,.F.);
#52=ORIENTED_EDGE('',*,*,#113,.T.);
#53=ORIENTED_EDGE('',*,*,#101,.T.);
#54=ORIENTED_EDGE('',*,*,#102,.F.);
#55=ORIENTED_EDGE('',*,*,#113,.F.);
#56=ORIENTED_EDGE('',*,*,#110,.F.);
#57=ORIENTED_EDGE('',*,*,#105,.F.);
#58=ORIENTED_EDGE('',*,*,#100,.T.);
#59=ORIENTED_EDGE('',*,*,#104,.T.);
#60=ORIENTED_EDGE('',*,*,#109,.T.);
#61=ORIENTED_EDGE('',*,*,#112,.T.);
#62=ORIENTED_EDGE('',*,*,#96,.T.);
#63=ORIENTED_EDGE('',*,*,#114,.F.);
#64=ORIENTED_EDGE('',*,*,#115,.F.);
#65=ORIENTED_EDGE('',*,*,#116,.T.);
#66=ORIENTED_EDGE('',*,*,#99,.T.);
#67=ORIENTED_EDGE('',*,*,#117,.F.);
#68=ORIENTED_EDGE('',*,*,#118,.F.);
#69=ORIENTED_EDGE('',*,*,#114,.T.);
#70=ORIENTED_EDGE('',*,*,#98,.T.);
#71=ORIENTED_EDGE('',*,*,#119,.F.);
#72=ORIENTED_EDGE('',*,*,#120,.F.);
#73=ORIENTED_EDGE('',*,*,#117,.T.);
#74=ORIENTED_EDGE('',*,*,#97,.T.);
#75=ORIENTED_EDGE('',*,*,#116,.F.);
#76=ORIENTED_EDGE('',*,*,#121,.F.);
#77=ORIENTED_EDGE('',*,*,#119,.T.);
#78=ORIENTED_EDGE('',*,*,#115,.T.);
#79=ORIENTED_EDGE('',*,*,#118,.T.);
#80=ORIENTED_EDGE('',*,*,#120,.T.);
#81=ORIENTED_EDGE('',*,*,#121,.T.);
#82=ORIENTED_EDGE('',*,*,#122,.F.);
#83=ORIENTED_EDGE('',*,*,#123,.T.);
#84=ORIENTED_EDGE('',*,*,#124,.T.);
#85=ORIENTED_EDGE('',*,*,#108,.F.);
#86=ORIENTED_EDGE('',*,*,#122,.T.);
#87=ORIENTED_EDGE('',*,*,#124,.F.);
#88=ORIENTED_EDGE('',*,*,#123,.F.);
#89=ORIENTED_EDGE('',*,*,#125,.F.);
#90=ORIENTED_EDGE('',*,*,#126,.T.);
#91=ORIENTED_EDGE('',*,*,#127,.T.);
#92=ORIENTED_EDGE('',*,*,#107,.T.);
#93=ORIENTED_EDGE('',*,*,#125,.T.);
#94=ORIENTED_EDGE('',*,*,#127,.F.);
#95=ORIENTED_EDGE('',*,*,#126,.F.);
#96=EDGE_CURVE('',#128,#129,#152,.T.);
#97=EDGE_CURVE('',#130,#128,#153,.T.);
#98=EDGE_CURVE('',#131,#130,#154,.T.);
#99=EDGE_CURVE('',#129,#131,#155,.T.);
#100=EDGE_CURVE('',#132,#133,#156,.T.);
#101=EDGE_CURVE('',#134,#132,#157,.T.);
#102=EDGE_CURVE('',#134,#135,#158,.T.);
#103=EDGE_CURVE('',#135,#133,#159,.T.);
#104=EDGE_CURVE('',#133,#136,#160,.T.);
#105=EDGE_CURVE('',#135,#137,#161,.T.);
#106=EDGE_CURVE('',#137,#136,#162,.T.);
#107=EDGE_CURVE('',#138,#138,#24,.T.);
#108=EDGE_CURVE('',#139,#139,#25,.T.);
#109=EDGE_CURVE('',#136,#140,#163,.T.);
#110=EDGE_CURVE('',#137,#141,#164,.T.);
#111=EDGE_CURVE('',#141,#140,#165,.T.);
#112=EDGE_CURVE('',#140,#132,#166,.T.);
#113=EDGE_CURVE('',#141,#134,#167,.T.);
#114=EDGE_CURVE('',#142,#129,#168,.T.);
#115=EDGE_CURVE('',#143,#142,#169,.T.);
#116=EDGE_CURVE('',#143,#128,#170,.T.);
#117=EDGE_CURVE('',#144,#131,#171,.T.);
#118=EDGE_CURVE('',#142,#144,#172,.T.);
#119=EDGE_CURVE('',#145,#130,#173,.T.);
#120=EDGE_CURVE('',#144,#145,#174,.T.);
#121=EDGE_CURVE('',#145,#143,#175,.T.);
#122=EDGE_CURVE('',#146,#146,#26,.T.);
#123=EDGE_CURVE('',#147,#147,#27,.T.);
#124=EDGE_CURVE('',#148,#148,#28,.T.);
#125=EDGE_CURVE('',#149,#149,#29,.T.);
#126=EDGE_CURVE('',#150,#150,#30,.T.);
#127=EDGE_CURVE('',#151,#151,#31,.T.);
#128=VERTEX_POINT('',#413);
#129=VERTEX_POINT('',#414);
#130=VERTEX_POINT('',#416);
#131=VERTEX_POINT('',#418);
#132=VERTEX_POINT('',#421);
#133=VERTEX_POINT('',#422);
#134=VERTEX_POINT('',#424);
#135=VERTEX_POINT('',#426);
#136=VERTEX_POINT('',#430);
#137=VERTEX_POINT('',#432);
#138=VERTEX_POINT('',#436);
#139=VERTEX_POINT('',#438);
#140=VERTEX_POINT('',#440);
#141=VERTEX_POINT('',#442);
#142=VERTEX_POINT('',#451);
#143=VERTEX_POINT('',#453);
#144=VERTEX_POINT('',#457);
#145=VERTEX_POINT('',#461);
#146=VERTEX_POINT('',#468);
#147=VERTEX_POINT('',#470);
#148=VERTEX_POINT('',#473);
#149=VERTEX_POINT('',#478);
#150=VERTEX_POINT('',#480);
#151=VERTEX_POINT('',#483);
#152=LINE('',#412,#176);
#153=LINE('',#415,#177);
#154=LINE('',#417,#178);
#155=LINE('',#419,#179);
#156=LINE('',#420,#180);
#157=LINE('',#423,#181);
#158=LINE('',#425,#182);
#159=LINE('',#427,#183);
#160=LINE('',#429,#184);
#161=LINE('',#431,#185);
#162=LINE('',#433,#186);
#163=LINE('',#439,#187);
#164=LINE('',#441,#188);
#165=LINE('',#443,#189);
#166=LINE('',#445,#190);
#167=LINE('',#446,#191);
#168=LINE('',#450,#192);
#169=LINE('',#452,#193);
#170=LINE('',#454,#194);
#171=LINE('',#456,#195);
#172=LINE('',#458,#196);
#173=LINE('',#460,#197);
#174=LINE('',#462,#198);
#175=LINE('',#464,#199);
#176=VECTOR('',#334,1000.);
#177=VECTOR('',#335,1000.);
#178=VECTOR('',#336,1000.);
#179=VECTOR('',#337,1000.);
#180=VECTOR('',#338,1000.);
#181=VECTOR('',#339,1000.);
#182=VECTOR('',#340,1000.);
#183=VECTOR('',#341,1000.);
#184=VECTOR('',#344,1000.);
#185=VECTOR('',#345,1000.);
#186=VECTOR('',#346,1000.);
#187=VECTOR('',#353,1000.);
#188=VECTOR('',#354,1000.);
#189=VECTOR('',#355,1000.);
#190=VECTOR('',#358,1000.);
#191=VECTOR('',#359,1000.);
#192=VECTOR('',#366,1000.);
#193=VECTOR('',#367,1000.);
#194=VECTOR('',#368,1000.);
#195=VECTOR('',#371,1000.);
#196=VECTOR('',#372,1000.);
#197=VECTOR('',#375,1000.);
#198=VECTOR('',#376,1000.);
#199=VECTOR('',#379,1000.);
#200=EDGE_LOOP('',(#32,#33,#34,#35));
#201=EDGE_LOOP('',(#36,#37,#38,#39));
#202=EDGE_LOOP('',(#40,#41,#42,#43));
#203=EDGE_LOOP('',(#44));
#204=EDGE_LOOP('',(#45));
#205=EDGE_LOOP('',(#46,#47,#48,#49));
#206=EDGE_LOOP('',(#50,#51,#52,#53));
#207=EDGE_LOOP('',(#54,#55,#56,#57));
#208=EDGE_LOOP('',(#58,#59,#60,#61));
#209=EDGE_LOOP('',(#62,#63,#64,#65));
#210=EDGE_LOOP('',(#66,#67,#68,#69));
#211=EDGE_LOOP('',(#70,#71,#72,#73));
#212=EDGE_LOOP('',(#74,#75,#76,#77));
#213=EDGE_LOOP('',(#78,#79,#80,#81));
#214=EDGE_LOOP('',(#82));
#215=EDGE_LOOP('',(#83));
#216=EDGE_LOOP('',(#84));
#217=EDGE_LOOP('',(#85));
#218=EDGE_LOOP('',(#86));
#219=EDGE_LOOP('',(#87));
#220=EDGE_LOOP('',(#88));
#221=EDGE_LOOP('',(#89));
#222=EDGE_LOOP('',(#90));
#223=EDGE_LOOP('',(#91));
#224=EDGE_LOOP('',(#92));
#225=EDGE_LOOP('',(#93));
#226=EDGE_LOOP('',(#94));
#227=EDGE_LOOP('',(#95));
#228=FACE_BOUND('',#200,.T.);
#229=FACE_BOUND('',#201,.T.);
#230=FACE_BOUND('',#202,.T.);
#231=FACE_BOUND('',#203,.T.);
#232=FACE_BOUND('',#204,.T.);
#233=FACE_BOUND('',#205,.T.);
#234=FACE_BOUND('',#206,.T.);
#235=FACE_BOUND('',#207,.T.);
#236=FACE_BOUND('',#208,.T.);
#237=FACE_BOUND('',#209,.T.);
#238=FACE_BOUND('',#210,.T.);
#239=FACE_BOUND('',#211,.T.);
#240=FACE_BOUND('',#212,.T.);
#241=FACE_BOUND('',#213,.T.);
#242=FACE_BOUND('',#214,.T.);
#243=FACE_BOUND('',#215,.T.);
#244=FACE_BOUND('',#216,.T.);
#245=FACE_BOUND('',#217,.T.);
#246=FACE_BOUND('',#218,.T.);
#247=FACE_BOUND('',#219,.T.);
#248=FACE_BOUND('',#220,.T.);
#249=FACE_BOUND('',#221,.T.);
#250=FACE_BOUND('',#222,.T.);
#251=FACE_BOUND('',#223,.T.);
#252=FACE_BOUND('',#224,.T.);
#253=FACE_BOUND('',#225,.T.);
#254=FACE_BOUND('',#226,.T.);
#255=FACE_BOUND('',#227,.T.);
#256=PLANE('',#303);
#257=PLANE('',#304);
#258=PLANE('',#305);
#259=PLANE('',#308);
#260=PLANE('',#309);
#261=PLANE('',#310);
#262=PLANE('',#311);
#263=PLANE('',#312);
#264=PLANE('',#313);
#265=PLANE('',#314);
#266=PLANE('',#315);
#267=PLANE('',#321);
#268=PLANE('',#322);
#269=PLANE('',#328);
#270=PLANE('',#329);
#271=ADVANCED_FACE('',(#228,#229),#256,.T.);
#272=ADVANCED_FACE('',(#230),#257,.T.);
#273=ADVANCED_FACE('',(#231,#232,#233),#258,.T.);
#274=ADVANCED_FACE('',(#234),#259,.T.);
#275=ADVANCED_FACE('',(#235),#260,.F.);
#276=ADVANCED_FACE('',(#236),#261,.T.);
#277=ADVANCED_FACE('',(#237),#262,.F.);
#278=ADVANCED_FACE('',(#238),#263,.F.);
#279=ADVANCED_FACE('',(#239),#264,.F.);
#280=ADVANCED_FACE('',(#240),#265,.F.);
#281=ADVANCED_FACE('',(#241),#266,.T.);
#282=ADVANCED_FACE('',(#242,#243),#20,.F.);
#283=ADVANCED_FACE('',(#244,#245),#21,.T.);
#284=ADVANCED_FACE('',(#246,#247),#267,.F.);
#285=ADVANCED_FACE('',(#248),#268,.T.);
#286=ADVANCED_FACE('',(#249,#250),#22,.F.);
#287=ADVANCED_FACE('',(#251,#252),#23,.T.);
#288=ADVANCED_FACE('',(#253,#254),#269,.F.);
#289=ADVANCED_FACE('',(#255),#270,.T.);
#290=CLOSED_SHELL('',(#271,#272,#273,#274,#275,#276,#277,#278,#279,#280,
#281,#282,#283,#284,#285,#286,#287,#288,#289));
#291=STYLED_ITEM('',(#292),#299);
#292=PRESENTATION_STYLE_ASSIGNMENT((#293));
#293=SURFACE_STYLE_USAGE(.BOTH.,#294);
#294=SURFACE_SIDE_STYLE('',(#295));
#295=SURFACE_STYLE_FILL_AREA(#296);
#296=FILL_AREA_STYLE('',(#297));
#297=FILL_AREA_STYLE_COLOUR('',#298);
#298=COLOUR_RGB('',0.645180702209473,0.678915679454803,0.699999988079071);
#299=MANIFOLD_SOLID_BREP('',#290);
#300=SHAPE_DEFINITION_REPRESENTATION(#492,#301);
#301=SHAPE_REPRESENTATION('SNP 1013 P',(#302),#487);
#302=AXIS2_PLACEMENT_3D('',#410,#330,#331);
#303=AXIS2_PLACEMENT_3D('',#411,#332,#333);
#304=AXIS2_PLACEMENT_3D('',#428,#342,#343);
#305=AXIS2_PLACEMENT_3D('',#434,#347,#348);
#306=AXIS2_PLACEMENT_3D('',#435,#349,#350);
#307=AXIS2_PLACEMENT_3D('',#437,#351,#352);
#308=AXIS2_PLACEMENT_3D('',#444,#356,#357);
#309=AXIS2_PLACEMENT_3D('',#447,#360,#361);
#310=AXIS2_PLACEMENT_3D('',#448,#362,#363);
#311=AXIS2_PLACEMENT_3D('',#449,#364,#365);
#312=AXIS2_PLACEMENT_3D('',#455,#369,#370);
#313=AXIS2_PLACEMENT_3D('',#459,#373,#374);
#314=AXIS2_PLACEMENT_3D('',#463,#377,#378);
#315=AXIS2_PLACEMENT_3D('',#465,#380,#381);
#316=AXIS2_PLACEMENT_3D('',#466,#382,#383);
#317=AXIS2_PLACEMENT_3D('',#467,#384,#385);
#318=AXIS2_PLACEMENT_3D('',#469,#386,#387);
#319=AXIS2_PLACEMENT_3D('',#471,#388,#389);
#320=AXIS2_PLACEMENT_3D('',#472,#390,#391);
#321=AXIS2_PLACEMENT_3D('',#474,#392,#393);
#322=AXIS2_PLACEMENT_3D('',#475,#394,#395);
#323=AXIS2_PLACEMENT_3D('',#476,#396,#397);
#324=AXIS2_PLACEMENT_3D('',#477,#398,#399);
#325=AXIS2_PLACEMENT_3D('',#479,#400,#401);
#326=AXIS2_PLACEMENT_3D('',#481,#402,#403);
#327=AXIS2_PLACEMENT_3D('',#482,#404,#405);
#328=AXIS2_PLACEMENT_3D('',#484,#406,#407);
#329=AXIS2_PLACEMENT_3D('',#485,#408,#409);
#330=DIRECTION('',(0.,0.,1.));
#331=DIRECTION('',(1.,0.,0.));
#332=DIRECTION('',(0.,0.,-1.));
#333=DIRECTION('',(-1.,0.,0.));
#334=DIRECTION('',(-1.,0.,0.));
#335=DIRECTION('',(0.,-1.,0.));
#336=DIRECTION('',(1.,0.,0.));
#337=DIRECTION('',(0.,1.,0.));
#338=DIRECTION('',(1.,0.,0.));
#339=DIRECTION('',(0.,-1.,0.));
#340=DIRECTION('',(1.,0.,0.));
#341=DIRECTION('',(0.,-1.,0.));
#342=DIRECTION('',(1.,0.,0.));
#343=DIRECTION('',(0.,0.,-1.));
#344=DIRECTION('',(0.,0.,1.));
#345=DIRECTION('',(0.,0.,1.));
#346=DIRECTION('',(0.,-1.,0.));
#347=DIRECTION('',(0.,0.,1.));
#348=DIRECTION('',(1.,0.,0.));
#349=DIRECTION('',(0.,0.,1.));
#350=DIRECTION('',(1.,0.,0.));
#351=DIRECTION('',(0.,0.,-1.));
#352=DIRECTION('',(0.,1.,0.));
#353=DIRECTION('',(-1.,0.,0.));
#354=DIRECTION('',(-1.,0.,0.));
#355=DIRECTION('',(0.,-1.,0.));
#356=DIRECTION('',(-1.,0.,0.));
#357=DIRECTION('',(0.,0.,1.));
#358=DIRECTION('',(0.,0.,-1.));
#359=DIRECTION('',(0.,0.,-1.));
#360=DIRECTION('',(0.,-1.,0.));
#361=DIRECTION('',(0.,0.,-1.));
#362=DIRECTION('',(0.,-1.,0.));
#363=DIRECTION('',(0.,0.,-1.));
#364=DIRECTION('',(0.,-1.,0.));
#365=DIRECTION('',(0.,0.,-1.));
#366=DIRECTION('',(0.,0.,-1.));
#367=DIRECTION('',(-1.,0.,0.));
#368=DIRECTION('',(0.,0.,-1.));
#369=DIRECTION('',(-1.,0.,0.));
#370=DIRECTION('',(0.,0.,1.));
#371=DIRECTION('',(0.,0.,-1.));
#372=DIRECTION('',(0.,1.,0.));
#373=DIRECTION('',(0.,1.,0.));
#374=DIRECTION('',(0.,0.,1.));
#375=DIRECTION('',(0.,0.,-1.));
#376=DIRECTION('',(1.,0.,0.));
#377=DIRECTION('',(1.,0.,0.));
#378=DIRECTION('',(0.,0.,-1.));
#379=DIRECTION('',(0.,-1.,0.));
#380=DIRECTION('',(0.,0.,-1.));
#381=DIRECTION('',(-1.,0.,0.));
#382=DIRECTION('',(0.,0.,-1.));
#383=DIRECTION('',(-1.,0.,0.));
#384=DIRECTION('',(0.,0.,-1.));
#385=DIRECTION('',(0.,1.,0.));
#386=DIRECTION('',(0.,0.,-1.));
#387=DIRECTION('',(0.,1.,0.));
#388=DIRECTION('',(0.,0.,-1.));
#389=DIRECTION('',(-1.,0.,0.));
#390=DIRECTION('',(0.,0.,-1.));
#391=DIRECTION('',(0.,1.,0.));
#392=DIRECTION('',(0.,0.,-1.));
#393=DIRECTION('',(-1.,0.,0.));
#394=DIRECTION('',(0.,0.,1.));
#395=DIRECTION('',(1.,0.,0.));
#396=DIRECTION('',(0.,0.,-1.));
#397=DIRECTION('',(-1.,0.,0.));
#398=DIRECTION('',(0.,0.,-1.));
#399=DIRECTION('',(0.,1.,0.));
#400=DIRECTION('',(0.,0.,-1.));
#401=DIRECTION('',(0.,1.,0.));
#402=DIRECTION('',(0.,0.,-1.));
#403=DIRECTION('',(-1.,0.,0.));
#404=DIRECTION('',(0.,0.,-1.));
#405=DIRECTION('',(0.,1.,0.));
#406=DIRECTION('',(0.,0.,-1.));
#407=DIRECTION('',(-1.,0.,0.));
#408=DIRECTION('',(0.,0.,1.));
#409=DIRECTION('',(1.,0.,0.));
#410=CARTESIAN_POINT('',(0.,0.,0.));
#411=CARTESIAN_POINT('',(-31.,330.,-31.));
#412=CARTESIAN_POINT('',(5.75,2.,-31.));
#413=CARTESIAN_POINT('',(5.75,2.,-31.));
#414=CARTESIAN_POINT('',(-5.75,2.,-31.));
#415=CARTESIAN_POINT('',(5.75,328.,-31.));
#416=CARTESIAN_POINT('',(5.75,328.,-31.));
#417=CARTESIAN_POINT('',(-5.75,328.,-31.));
#418=CARTESIAN_POINT('',(-5.75,328.,-31.));
#419=CARTESIAN_POINT('',(-5.75,2.,-31.));
#420=CARTESIAN_POINT('',(-31.,0.,-31.));
#421=CARTESIAN_POINT('',(-31.,0.,-31.));
#422=CARTESIAN_POINT('',(31.,0.,-31.));
#423=CARTESIAN_POINT('',(-31.,330.,-31.));
#424=CARTESIAN_POINT('',(-31.,330.,-31.));
#425=CARTESIAN_POINT('',(-31.,330.,-31.));
#426=CARTESIAN_POINT('',(31.,330.,-31.));
#427=CARTESIAN_POINT('',(31.,330.,-31.));
#428=CARTESIAN_POINT('',(31.,330.,-31.));
#429=CARTESIAN_POINT('',(31.,0.,-31.));
#430=CARTESIAN_POINT('',(31.,0.,31.));
#431=CARTESIAN_POINT('',(31.,330.,-31.));
#432=CARTESIAN_POINT('',(31.,330.,31.));
#433=CARTESIAN_POINT('',(31.,330.,31.));
#434=CARTESIAN_POINT('',(31.,330.,31.));
#435=CARTESIAN_POINT('',(0.,17.5,31.));
#436=CARTESIAN_POINT('',(8.5,17.5,31.));
#437=CARTESIAN_POINT('',(0.,312.5,31.));
#438=CARTESIAN_POINT('',(0.,321.,31.));
#439=CARTESIAN_POINT('',(31.,0.,31.));
#440=CARTESIAN_POINT('',(-31.,0.,31.));
#441=CARTESIAN_POINT('',(31.,330.,31.));
#442=CARTESIAN_POINT('',(-31.,330.,31.));
#443=CARTESIAN_POINT('',(-31.,330.,31.));
#444=CARTESIAN_POINT('',(-31.,330.,31.));
#445=CARTESIAN_POINT('',(-31.,0.,31.));
#446=CARTESIAN_POINT('',(-31.,330.,31.));
#447=CARTESIAN_POINT('',(0.,330.,0.));
#448=CARTESIAN_POINT('',(0.,0.,0.));
#449=CARTESIAN_POINT('',(5.75,2.,-21.));
#450=CARTESIAN_POINT('',(-5.75,2.,-21.));
#451=CARTESIAN_POINT('',(-5.75,2.,-21.));
#452=CARTESIAN_POINT('',(5.75,2.,-21.));
#453=CARTESIAN_POINT('',(5.75,2.,-21.));
#454=CARTESIAN_POINT('',(5.75,2.,-21.));
#455=CARTESIAN_POINT('',(-5.75,2.,-21.));
#456=CARTESIAN_POINT('',(-5.75,328.,-21.));
#457=CARTESIAN_POINT('',(-5.75,328.,-21.));
#458=CARTESIAN_POINT('',(-5.75,2.,-21.));
#459=CARTESIAN_POINT('',(-5.75,328.,-21.));
#460=CARTESIAN_POINT('',(5.75,328.,-21.));
#461=CARTESIAN_POINT('',(5.75,328.,-21.));
#462=CARTESIAN_POINT('',(-5.75,328.,-21.));
#463=CARTESIAN_POINT('',(5.75,328.,-21.));
#464=CARTESIAN_POINT('',(5.75,328.,-21.));
#465=CARTESIAN_POINT('',(0.,0.,-21.));
#466=CARTESIAN_POINT('',(0.,312.5,37.8));
#467=CARTESIAN_POINT('',(0.,312.5,37.8));
#468=CARTESIAN_POINT('',(0.,319.25,37.8));
#469=CARTESIAN_POINT('',(0.,312.5,31.));
#470=CARTESIAN_POINT('',(0.,319.25,31.));
#471=CARTESIAN_POINT('',(0.,312.5,37.8));
#472=CARTESIAN_POINT('',(0.,312.5,37.8));
#473=CARTESIAN_POINT('',(0.,321.,37.8));
#474=CARTESIAN_POINT('',(0.,312.5,37.8));
#475=CARTESIAN_POINT('',(31.,330.,31.));
#476=CARTESIAN_POINT('',(0.,17.5,37.8));
#477=CARTESIAN_POINT('',(0.,17.5,37.8));
#478=CARTESIAN_POINT('',(0.,24.25,37.8));
#479=CARTESIAN_POINT('',(0.,17.5,31.));
#480=CARTESIAN_POINT('',(0.,24.25,31.));
#481=CARTESIAN_POINT('',(0.,17.5,37.8));
#482=CARTESIAN_POINT('',(0.,17.5,37.8));
#483=CARTESIAN_POINT('',(0.,26.,37.8));
#484=CARTESIAN_POINT('',(0.,17.5,37.8));
#485=CARTESIAN_POINT('',(31.,330.,31.));
#486=MECHANICAL_DESIGN_GEOMETRIC_PRESENTATION_REPRESENTATION('',(#291),
#487);
#487=(
GEOMETRIC_REPRESENTATION_CONTEXT(3)
GLOBAL_UNCERTAINTY_ASSIGNED_CONTEXT((#488))
GLOBAL_UNIT_ASSIGNED_CONTEXT((#491,#490,#489))
REPRESENTATION_CONTEXT('SNP 1013 P','TOP_LEVEL_ASSEMBLY_PART')
);
#488=UNCERTAINTY_MEASURE_WITH_UNIT(LENGTH_MEASURE(0.005),#491,
'DISTANCE_ACCURACY_VALUE','Maximum Tolerance applied to model');
#489=(
NAMED_UNIT(*)
SI_UNIT($,.STERADIAN.)
SOLID_ANGLE_UNIT()
);
#490=(
NAMED_UNIT(*)
PLANE_ANGLE_UNIT()
SI_UNIT($,.RADIAN.)
);
#491=(
LENGTH_UNIT()
NAMED_UNIT(*)
SI_UNIT(.MILLI.,.METRE.)
);
#492=PRODUCT_DEFINITION_SHAPE('','',#493);
#493=PRODUCT_DEFINITION('','',#495,#494);
#494=PRODUCT_DEFINITION_CONTEXT('',#501,'design');
#495=PRODUCT_DEFINITION_FORMATION_WITH_SPECIFIED_SOURCE('','',#497,
 .NOT_KNOWN.);
#496=PRODUCT_RELATED_PRODUCT_CATEGORY('','',(#497));
#497=PRODUCT('SNP 1013 P','SNP 1013 P','SNP 1013 P',(#499));
#498=PRODUCT_CATEGORY('','');
#499=PRODUCT_CONTEXT('',#501,'mechanical');
#500=APPLICATION_PROTOCOL_DEFINITION('international standard',
'automotive_design',2010,#501);
#501=APPLICATION_CONTEXT(
'core data for automotive mechanical design processes');
ENDSEC;
END-ISO-10303-21;
