ISO-10303-21;
HEADER;
/* Generated by software containing ST-Developer
 * from STEP Tools, Inc. (www.steptools.com) 
 */
/* OPTION: strings as raw bytes, not using required /X/ escapes */

FILE_DESCRIPTION(
/* description */ ('Unknown'),
/* implementation_level */ '2;1');

FILE_NAME(
/* name */ 'SNP 1520 D LED 230V',
/* time_stamp */ '2018-04-10T08:08:52+02:00',
/* author */ ('Unknown'),
/* organization */ ('Unknown'),
/* preprocessor_version */ 'ST-DEVELOPER v16.7',
/* originating_system */ 'DEX',
/* authorisation */ $);

FILE_SCHEMA (('AUTOMOTIVE_DESIGN {1 0 10303 214 3 1 1}'));
ENDSEC;

DATA;
#10=PROPERTY_DEFINITION_REPRESENTATION(#14,#12);
#11=PROPERTY_DEFINITION_REPRESENTATION(#15,#13);
#12=REPRESENTATION('',(#16),#317);
#13=REPRESENTATION('',(#17),#317);
#14=PROPERTY_DEFINITION('pmi validation property','',#322);
#15=PROPERTY_DEFINITION('pmi validation property','',#322);
#16=VALUE_REPRESENTATION_ITEM('number of annotations',COUNT_MEASURE(0.));
#17=VALUE_REPRESENTATION_ITEM('number of views',COUNT_MEASURE(0.));
#18=SHAPE_REPRESENTATION_RELATIONSHIP('','',#207,#19);
#19=ADVANCED_BREP_SHAPE_REPRESENTATION('',(#205),#317);
#20=ORIENTED_EDGE('',*,*,#68,.F.);
#21=ORIENTED_EDGE('',*,*,#69,.T.);
#22=ORIENTED_EDGE('',*,*,#70,.F.);
#23=ORIENTED_EDGE('',*,*,#71,.F.);
#24=ORIENTED_EDGE('',*,*,#72,.F.);
#25=ORIENTED_EDGE('',*,*,#73,.F.);
#26=ORIENTED_EDGE('',*,*,#74,.F.);
#27=ORIENTED_EDGE('',*,*,#71,.T.);
#28=ORIENTED_EDGE('',*,*,#75,.F.);
#29=ORIENTED_EDGE('',*,*,#76,.T.);
#30=ORIENTED_EDGE('',*,*,#77,.T.);
#31=ORIENTED_EDGE('',*,*,#78,.F.);
#32=ORIENTED_EDGE('',*,*,#79,.T.);
#33=ORIENTED_EDGE('',*,*,#80,.F.);
#34=ORIENTED_EDGE('',*,*,#81,.F.);
#35=ORIENTED_EDGE('',*,*,#78,.T.);
#36=ORIENTED_EDGE('',*,*,#82,.F.);
#37=ORIENTED_EDGE('',*,*,#83,.T.);
#38=ORIENTED_EDGE('',*,*,#84,.F.);
#39=ORIENTED_EDGE('',*,*,#80,.T.);
#40=ORIENTED_EDGE('',*,*,#85,.T.);
#41=ORIENTED_EDGE('',*,*,#86,.F.);
#42=ORIENTED_EDGE('',*,*,#87,.F.);
#43=ORIENTED_EDGE('',*,*,#69,.F.);
#44=ORIENTED_EDGE('',*,*,#88,.F.);
#45=ORIENTED_EDGE('',*,*,#72,.T.);
#46=ORIENTED_EDGE('',*,*,#81,.T.);
#47=ORIENTED_EDGE('',*,*,#84,.T.);
#48=ORIENTED_EDGE('',*,*,#77,.F.);
#49=ORIENTED_EDGE('',*,*,#89,.F.);
#50=ORIENTED_EDGE('',*,*,#85,.F.);
#51=ORIENTED_EDGE('',*,*,#79,.F.);
#52=ORIENTED_EDGE('',*,*,#89,.T.);
#53=ORIENTED_EDGE('',*,*,#76,.F.);
#54=ORIENTED_EDGE('',*,*,#90,.F.);
#55=ORIENTED_EDGE('',*,*,#86,.T.);
#56=ORIENTED_EDGE('',*,*,#90,.T.);
#57=ORIENTED_EDGE('',*,*,#75,.T.);
#58=ORIENTED_EDGE('',*,*,#70,.T.);
#59=ORIENTED_EDGE('',*,*,#87,.T.);
#60=ORIENTED_EDGE('',*,*,#88,.T.);
#61=ORIENTED_EDGE('',*,*,#83,.F.);
#62=ORIENTED_EDGE('',*,*,#91,.F.);
#63=ORIENTED_EDGE('',*,*,#73,.T.);
#64=ORIENTED_EDGE('',*,*,#91,.T.);
#65=ORIENTED_EDGE('',*,*,#82,.T.);
#66=ORIENTED_EDGE('',*,*,#68,.T.);
#67=ORIENTED_EDGE('',*,*,#74,.T.);
#68=EDGE_CURVE('',#92,#93,#108,.T.);
#69=EDGE_CURVE('',#92,#94,#109,.T.);
#70=EDGE_CURVE('',#95,#94,#110,.T.);
#71=EDGE_CURVE('',#93,#95,#111,.T.);
#72=EDGE_CURVE('',#96,#97,#112,.T.);
#73=EDGE_CURVE('',#98,#96,#113,.T.);
#74=EDGE_CURVE('',#93,#98,#114,.T.);
#75=EDGE_CURVE('',#99,#95,#115,.T.);
#76=EDGE_CURVE('',#99,#100,#116,.T.);
#77=EDGE_CURVE('',#100,#101,#117,.T.);
#78=EDGE_CURVE('',#97,#101,#118,.T.);
#79=EDGE_CURVE('',#101,#102,#119,.T.);
#80=EDGE_CURVE('',#103,#102,#120,.T.);
#81=EDGE_CURVE('',#97,#103,#121,.T.);
#82=EDGE_CURVE('',#104,#92,#122,.T.);
#83=EDGE_CURVE('',#104,#105,#123,.T.);
#84=EDGE_CURVE('',#103,#105,#124,.T.);
#85=EDGE_CURVE('',#102,#106,#125,.T.);
#86=EDGE_CURVE('',#107,#106,#126,.T.);
#87=EDGE_CURVE('',#94,#107,#127,.T.);
#88=EDGE_CURVE('',#96,#105,#128,.T.);
#89=EDGE_CURVE('',#106,#100,#129,.T.);
#90=EDGE_CURVE('',#107,#99,#130,.T.);
#91=EDGE_CURVE('',#98,#104,#131,.T.);
#92=VERTEX_POINT('',#268);
#93=VERTEX_POINT('',#269);
#94=VERTEX_POINT('',#271);
#95=VERTEX_POINT('',#273);
#96=VERTEX_POINT('',#277);
#97=VERTEX_POINT('',#278);
#98=VERTEX_POINT('',#280);
#99=VERTEX_POINT('',#283);
#100=VERTEX_POINT('',#285);
#101=VERTEX_POINT('',#287);
#102=VERTEX_POINT('',#291);
#103=VERTEX_POINT('',#293);
#104=VERTEX_POINT('',#297);
#105=VERTEX_POINT('',#299);
#106=VERTEX_POINT('',#302);
#107=VERTEX_POINT('',#304);
#108=LINE('',#267,#132);
#109=LINE('',#270,#133);
#110=LINE('',#272,#134);
#111=LINE('',#274,#135);
#112=LINE('',#276,#136);
#113=LINE('',#279,#137);
#114=LINE('',#281,#138);
#115=LINE('',#282,#139);
#116=LINE('',#284,#140);
#117=LINE('',#286,#141);
#118=LINE('',#288,#142);
#119=LINE('',#290,#143);
#120=LINE('',#292,#144);
#121=LINE('',#294,#145);
#122=LINE('',#296,#146);
#123=LINE('',#298,#147);
#124=LINE('',#300,#148);
#125=LINE('',#301,#149);
#126=LINE('',#303,#150);
#127=LINE('',#305,#151);
#128=LINE('',#307,#152);
#129=LINE('',#309,#153);
#130=LINE('',#311,#154);
#131=LINE('',#314,#155);
#132=VECTOR('',#223,1000.);
#133=VECTOR('',#224,1000.);
#134=VECTOR('',#225,1000.);
#135=VECTOR('',#226,1000.);
#136=VECTOR('',#229,1000.);
#137=VECTOR('',#230,1000.);
#138=VECTOR('',#231,1000.);
#139=VECTOR('',#232,1000.);
#140=VECTOR('',#233,1000.);
#141=VECTOR('',#234,1000.);
#142=VECTOR('',#235,1000.);
#143=VECTOR('',#238,1000.);
#144=VECTOR('',#239,1000.);
#145=VECTOR('',#240,1000.);
#146=VECTOR('',#243,1000.);
#147=VECTOR('',#244,1000.);
#148=VECTOR('',#245,1000.);
#149=VECTOR('',#246,1000.);
#150=VECTOR('',#247,1000.);
#151=VECTOR('',#248,1000.);
#152=VECTOR('',#251,1000.);
#153=VECTOR('',#254,1000.);
#154=VECTOR('',#257,1000.);
#155=VECTOR('',#262,1000.);
#156=EDGE_LOOP('',(#20,#21,#22,#23));
#157=EDGE_LOOP('',(#24,#25,#26,#27,#28,#29,#30,#31));
#158=EDGE_LOOP('',(#32,#33,#34,#35));
#159=EDGE_LOOP('',(#36,#37,#38,#39,#40,#41,#42,#43));
#160=EDGE_LOOP('',(#44,#45,#46,#47));
#161=EDGE_LOOP('',(#48,#49,#50,#51));
#162=EDGE_LOOP('',(#52,#53,#54,#55));
#163=EDGE_LOOP('',(#56,#57,#58,#59));
#164=EDGE_LOOP('',(#60,#61,#62,#63));
#165=EDGE_LOOP('',(#64,#65,#66,#67));
#166=FACE_BOUND('',#156,.T.);
#167=FACE_BOUND('',#157,.T.);
#168=FACE_BOUND('',#158,.T.);
#169=FACE_BOUND('',#159,.T.);
#170=FACE_BOUND('',#160,.T.);
#171=FACE_BOUND('',#161,.T.);
#172=FACE_BOUND('',#162,.T.);
#173=FACE_BOUND('',#163,.T.);
#174=FACE_BOUND('',#164,.T.);
#175=FACE_BOUND('',#165,.T.);
#176=PLANE('',#209);
#177=PLANE('',#210);
#178=PLANE('',#211);
#179=PLANE('',#212);
#180=PLANE('',#213);
#181=PLANE('',#214);
#182=PLANE('',#215);
#183=PLANE('',#216);
#184=PLANE('',#217);
#185=PLANE('',#218);
#186=ADVANCED_FACE('',(#166),#176,.F.);
#187=ADVANCED_FACE('',(#167),#177,.F.);
#188=ADVANCED_FACE('',(#168),#178,.F.);
#189=ADVANCED_FACE('',(#169),#179,.F.);
#190=ADVANCED_FACE('',(#170),#180,.T.);
#191=ADVANCED_FACE('',(#171),#181,.F.);
#192=ADVANCED_FACE('',(#172),#182,.F.);
#193=ADVANCED_FACE('',(#173),#183,.T.);
#194=ADVANCED_FACE('',(#174),#184,.F.);
#195=ADVANCED_FACE('',(#175),#185,.T.);
#196=CLOSED_SHELL('',(#186,#187,#188,#189,#190,#191,#192,#193,#194,#195));
#197=STYLED_ITEM('',(#198),#205);
#198=PRESENTATION_STYLE_ASSIGNMENT((#199));
#199=SURFACE_STYLE_USAGE(.BOTH.,#200);
#200=SURFACE_SIDE_STYLE('',(#201));
#201=SURFACE_STYLE_FILL_AREA(#202);
#202=FILL_AREA_STYLE('',(#203));
#203=FILL_AREA_STYLE_COLOUR('',#204);
#204=COLOUR_RGB('',0.506983280181885,0.531564235687256,0.550000011920929);
#205=MANIFOLD_SOLID_BREP('',#196);
#206=SHAPE_DEFINITION_REPRESENTATION(#322,#207);
#207=SHAPE_REPRESENTATION('Part1',(#208),#317);
#208=AXIS2_PLACEMENT_3D('',#265,#219,#220);
#209=AXIS2_PLACEMENT_3D('',#266,#221,#222);
#210=AXIS2_PLACEMENT_3D('',#275,#227,#228);
#211=AXIS2_PLACEMENT_3D('',#289,#236,#237);
#212=AXIS2_PLACEMENT_3D('',#295,#241,#242);
#213=AXIS2_PLACEMENT_3D('',#306,#249,#250);
#214=AXIS2_PLACEMENT_3D('',#308,#252,#253);
#215=AXIS2_PLACEMENT_3D('',#310,#255,#256);
#216=AXIS2_PLACEMENT_3D('',#312,#258,#259);
#217=AXIS2_PLACEMENT_3D('',#313,#260,#261);
#218=AXIS2_PLACEMENT_3D('',#315,#263,#264);
#219=DIRECTION('',(0.,0.,1.));
#220=DIRECTION('',(1.,0.,0.));
#221=DIRECTION('',(0.,0.,1.));
#222=DIRECTION('',(1.,0.,0.));
#223=DIRECTION('',(-1.,0.,0.));
#224=DIRECTION('',(0.,-1.,0.));
#225=DIRECTION('',(1.,0.,0.));
#226=DIRECTION('',(0.,-1.,0.));
#227=DIRECTION('',(1.,0.,0.));
#228=DIRECTION('',(0.,0.,-1.));
#229=DIRECTION('',(0.,0.,1.));
#230=DIRECTION('',(0.,1.,0.));
#231=DIRECTION('',(0.,0.,1.));
#232=DIRECTION('',(0.,0.,-1.));
#233=DIRECTION('',(0.,-1.,0.));
#234=DIRECTION('',(0.,0.,1.));
#235=DIRECTION('',(0.,-1.,0.));
#236=DIRECTION('',(0.,0.,-1.));
#237=DIRECTION('',(-1.,0.,0.));
#238=DIRECTION('',(1.,0.,0.));
#239=DIRECTION('',(0.,-1.,0.));
#240=DIRECTION('',(1.,0.,0.));
#241=DIRECTION('',(-1.,0.,0.));
#242=DIRECTION('',(0.,0.,1.));
#243=DIRECTION('',(0.,0.,-1.));
#244=DIRECTION('',(0.,1.,0.));
#245=DIRECTION('',(0.,0.,-1.));
#246=DIRECTION('',(0.,0.,-1.));
#247=DIRECTION('',(0.,-1.,0.));
#248=DIRECTION('',(0.,0.,1.));
#249=DIRECTION('',(0.,1.,0.));
#250=DIRECTION('',(0.,0.,1.));
#251=DIRECTION('',(1.,0.,0.));
#252=DIRECTION('',(0.,1.,0.));
#253=DIRECTION('',(0.,0.,1.));
#254=DIRECTION('',(-1.,0.,0.));
#255=DIRECTION('',(0.,0.,1.));
#256=DIRECTION('',(1.,0.,0.));
#257=DIRECTION('',(-1.,0.,0.));
#258=DIRECTION('',(0.,-1.,0.));
#259=DIRECTION('',(0.,0.,-1.));
#260=DIRECTION('',(0.,0.,1.));
#261=DIRECTION('',(1.,0.,0.));
#262=DIRECTION('',(1.,0.,0.));
#263=DIRECTION('',(0.,1.,0.));
#264=DIRECTION('',(0.,0.,1.));
#265=CARTESIAN_POINT('',(0.,0.,0.));
#266=CARTESIAN_POINT('',(118.5,54.,-93.));
#267=CARTESIAN_POINT('',(118.5,34.25,-93.));
#268=CARTESIAN_POINT('',(118.5,34.25,-93.));
#269=CARTESIAN_POINT('',(-118.5,34.25,-93.));
#270=CARTESIAN_POINT('',(118.5,54.,-93.));
#271=CARTESIAN_POINT('',(118.5,19.75,-93.));
#272=CARTESIAN_POINT('',(-118.5,19.75,-93.));
#273=CARTESIAN_POINT('',(-118.5,19.75,-93.));
#274=CARTESIAN_POINT('',(-118.5,54.,-93.));
#275=CARTESIAN_POINT('',(-118.5,54.,-93.));
#276=CARTESIAN_POINT('',(-118.5,54.,-93.));
#277=CARTESIAN_POINT('',(-118.5,54.,46.5));
#278=CARTESIAN_POINT('',(-118.5,54.,93.));
#279=CARTESIAN_POINT('',(-118.5,34.25,46.5));
#280=CARTESIAN_POINT('',(-118.5,34.25,46.5));
#281=CARTESIAN_POINT('',(-118.5,34.25,-93.));
#282=CARTESIAN_POINT('',(-118.5,19.75,46.5));
#283=CARTESIAN_POINT('',(-118.5,19.75,46.5));
#284=CARTESIAN_POINT('',(-118.5,19.75,46.5));
#285=CARTESIAN_POINT('',(-118.5,0.,46.5));
#286=CARTESIAN_POINT('',(-118.5,0.,-93.));
#287=CARTESIAN_POINT('',(-118.5,0.,93.));
#288=CARTESIAN_POINT('',(-118.5,54.,93.));
#289=CARTESIAN_POINT('',(-118.5,54.,93.));
#290=CARTESIAN_POINT('',(-118.5,0.,93.));
#291=CARTESIAN_POINT('',(118.5,0.,93.));
#292=CARTESIAN_POINT('',(118.5,54.,93.));
#293=CARTESIAN_POINT('',(118.5,54.,93.));
#294=CARTESIAN_POINT('',(-118.5,54.,93.));
#295=CARTESIAN_POINT('',(118.5,54.,93.));
#296=CARTESIAN_POINT('',(118.5,34.25,46.5));
#297=CARTESIAN_POINT('',(118.5,34.25,46.5));
#298=CARTESIAN_POINT('',(118.5,34.25,46.5));
#299=CARTESIAN_POINT('',(118.5,54.,46.5));
#300=CARTESIAN_POINT('',(118.5,54.,93.));
#301=CARTESIAN_POINT('',(118.5,0.,93.));
#302=CARTESIAN_POINT('',(118.5,0.,46.5));
#303=CARTESIAN_POINT('',(118.5,19.75,46.5));
#304=CARTESIAN_POINT('',(118.5,19.75,46.5));
#305=CARTESIAN_POINT('',(118.5,19.75,-93.));
#306=CARTESIAN_POINT('',(0.,54.,0.));
#307=CARTESIAN_POINT('',(-118.5,54.,46.5));
#308=CARTESIAN_POINT('',(0.,0.,0.));
#309=CARTESIAN_POINT('',(118.5,0.,46.5));
#310=CARTESIAN_POINT('',(118.5,19.75,46.5));
#311=CARTESIAN_POINT('',(118.5,19.75,46.5));
#312=CARTESIAN_POINT('',(0.,19.75,0.));
#313=CARTESIAN_POINT('',(-118.5,34.25,46.5));
#314=CARTESIAN_POINT('',(-118.5,34.25,46.5));
#315=CARTESIAN_POINT('',(0.,34.25,0.));
#316=MECHANICAL_DESIGN_GEOMETRIC_PRESENTATION_REPRESENTATION('',(#197),
#317);
#317=(
GEOMETRIC_REPRESENTATION_CONTEXT(3)
GLOBAL_UNCERTAINTY_ASSIGNED_CONTEXT((#318))
GLOBAL_UNIT_ASSIGNED_CONTEXT((#321,#320,#319))
REPRESENTATION_CONTEXT('Part1','TOP_LEVEL_ASSEMBLY_PART')
);
#318=UNCERTAINTY_MEASURE_WITH_UNIT(LENGTH_MEASURE(0.005),#321,
'DISTANCE_ACCURACY_VALUE','Maximum Tolerance applied to model');
#319=(
NAMED_UNIT(*)
SI_UNIT($,.STERADIAN.)
SOLID_ANGLE_UNIT()
);
#320=(
NAMED_UNIT(*)
PLANE_ANGLE_UNIT()
SI_UNIT($,.RADIAN.)
);
#321=(
LENGTH_UNIT()
NAMED_UNIT(*)
SI_UNIT(.MILLI.,.METRE.)
);
#322=PRODUCT_DEFINITION_SHAPE('','',#323);
#323=PRODUCT_DEFINITION('','',#325,#324);
#324=PRODUCT_DEFINITION_CONTEXT('',#331,'design');
#325=PRODUCT_DEFINITION_FORMATION_WITH_SPECIFIED_SOURCE('','',#327,
 .NOT_KNOWN.);
#326=PRODUCT_RELATED_PRODUCT_CATEGORY('','',(#327));
#327=PRODUCT('Part1','Part1','Part1',(#329));
#328=PRODUCT_CATEGORY('','');
#329=PRODUCT_CONTEXT('',#331,'mechanical');
#330=APPLICATION_PROTOCOL_DEFINITION('international standard',
'automotive_design',2010,#331);
#331=APPLICATION_CONTEXT(
'core data for automotive mechanical design processes');
ENDSEC;
END-ISO-10303-21;
