ISO-10303-21;
HEADER;
/* Generated by software containing ST-Developer
 * from STEP Tools, Inc. (www.steptools.com) 
 */
/* OPTION: strings as raw bytes, not using required /X/ escapes */

FILE_DESCRIPTION(
/* description */ ('Unknown'),
/* implementation_level */ '2;1');

FILE_NAME(
/* name */ 'SNP 1520 P LED 230V',
/* time_stamp */ '2018-06-18T14:42:37+02:00',
/* author */ ('Unknown'),
/* organization */ ('Unknown'),
/* preprocessor_version */ 'ST-DEVELOPER v16.7',
/* originating_system */ 'DEX',
/* authorisation */ $);

FILE_SCHEMA (('AUTOMOTIVE_DESIGN {1 0 10303 214 3 1 1}'));
ENDSEC;

DATA;
#10=PROPERTY_DEFINITION_REPRESENTATION(#14,#12);
#11=PROPERTY_DEFINITION_REPRESENTATION(#15,#13);
#12=REPRESENTATION('',(#16),#401);
#13=REPRESENTATION('',(#17),#401);
#14=PROPERTY_DEFINITION('pmi validation property','',#406);
#15=PROPERTY_DEFINITION('pmi validation property','',#406);
#16=VALUE_REPRESENTATION_ITEM('number of annotations',COUNT_MEASURE(0.));
#17=VALUE_REPRESENTATION_ITEM('number of views',COUNT_MEASURE(0.));
#18=SHAPE_REPRESENTATION_RELATIONSHIP('','',#255,#19);
#19=ADVANCED_BREP_SHAPE_REPRESENTATION('',(#253),#401);
#20=CYLINDRICAL_SURFACE('',#265,5.);
#21=CYLINDRICAL_SURFACE('',#267,5.);
#22=CIRCLE('',#259,5.);
#23=CIRCLE('',#260,5.);
#24=CIRCLE('',#266,5.);
#25=CIRCLE('',#268,5.);
#26=ORIENTED_EDGE('',*,*,#82,.T.);
#27=ORIENTED_EDGE('',*,*,#83,.F.);
#28=ORIENTED_EDGE('',*,*,#84,.F.);
#29=ORIENTED_EDGE('',*,*,#85,.T.);
#30=ORIENTED_EDGE('',*,*,#86,.T.);
#31=ORIENTED_EDGE('',*,*,#87,.T.);
#32=ORIENTED_EDGE('',*,*,#88,.T.);
#33=ORIENTED_EDGE('',*,*,#89,.F.);
#34=ORIENTED_EDGE('',*,*,#90,.F.);
#35=ORIENTED_EDGE('',*,*,#83,.T.);
#36=ORIENTED_EDGE('',*,*,#91,.T.);
#37=ORIENTED_EDGE('',*,*,#92,.F.);
#38=ORIENTED_EDGE('',*,*,#93,.F.);
#39=ORIENTED_EDGE('',*,*,#89,.T.);
#40=ORIENTED_EDGE('',*,*,#94,.T.);
#41=ORIENTED_EDGE('',*,*,#85,.F.);
#42=ORIENTED_EDGE('',*,*,#95,.F.);
#43=ORIENTED_EDGE('',*,*,#92,.T.);
#44=ORIENTED_EDGE('',*,*,#84,.T.);
#45=ORIENTED_EDGE('',*,*,#90,.T.);
#46=ORIENTED_EDGE('',*,*,#93,.T.);
#47=ORIENTED_EDGE('',*,*,#95,.T.);
#48=ORIENTED_EDGE('',*,*,#82,.F.);
#49=ORIENTED_EDGE('',*,*,#94,.F.);
#50=ORIENTED_EDGE('',*,*,#91,.F.);
#51=ORIENTED_EDGE('',*,*,#88,.F.);
#52=ORIENTED_EDGE('',*,*,#96,.T.);
#53=ORIENTED_EDGE('',*,*,#87,.F.);
#54=ORIENTED_EDGE('',*,*,#97,.T.);
#55=ORIENTED_EDGE('',*,*,#86,.F.);
#56=ORIENTED_EDGE('',*,*,#98,.T.);
#57=ORIENTED_EDGE('',*,*,#99,.F.);
#58=ORIENTED_EDGE('',*,*,#100,.F.);
#59=ORIENTED_EDGE('',*,*,#101,.T.);
#60=ORIENTED_EDGE('',*,*,#102,.T.);
#61=ORIENTED_EDGE('',*,*,#103,.F.);
#62=ORIENTED_EDGE('',*,*,#104,.F.);
#63=ORIENTED_EDGE('',*,*,#99,.T.);
#64=ORIENTED_EDGE('',*,*,#105,.T.);
#65=ORIENTED_EDGE('',*,*,#106,.F.);
#66=ORIENTED_EDGE('',*,*,#107,.F.);
#67=ORIENTED_EDGE('',*,*,#103,.T.);
#68=ORIENTED_EDGE('',*,*,#108,.T.);
#69=ORIENTED_EDGE('',*,*,#101,.F.);
#70=ORIENTED_EDGE('',*,*,#109,.F.);
#71=ORIENTED_EDGE('',*,*,#106,.T.);
#72=ORIENTED_EDGE('',*,*,#100,.T.);
#73=ORIENTED_EDGE('',*,*,#104,.T.);
#74=ORIENTED_EDGE('',*,*,#107,.T.);
#75=ORIENTED_EDGE('',*,*,#109,.T.);
#76=ORIENTED_EDGE('',*,*,#96,.F.);
#77=ORIENTED_EDGE('',*,*,#97,.F.);
#78=ORIENTED_EDGE('',*,*,#98,.F.);
#79=ORIENTED_EDGE('',*,*,#108,.F.);
#80=ORIENTED_EDGE('',*,*,#105,.F.);
#81=ORIENTED_EDGE('',*,*,#102,.F.);
#82=EDGE_CURVE('',#110,#111,#130,.T.);
#83=EDGE_CURVE('',#112,#111,#131,.T.);
#84=EDGE_CURVE('',#113,#112,#132,.T.);
#85=EDGE_CURVE('',#113,#110,#133,.T.);
#86=EDGE_CURVE('',#114,#114,#22,.T.);
#87=EDGE_CURVE('',#115,#115,#23,.T.);
#88=EDGE_CURVE('',#111,#116,#134,.T.);
#89=EDGE_CURVE('',#117,#116,#135,.T.);
#90=EDGE_CURVE('',#112,#117,#136,.T.);
#91=EDGE_CURVE('',#116,#118,#137,.T.);
#92=EDGE_CURVE('',#119,#118,#138,.T.);
#93=EDGE_CURVE('',#117,#119,#139,.T.);
#94=EDGE_CURVE('',#118,#110,#140,.T.);
#95=EDGE_CURVE('',#119,#113,#141,.T.);
#96=EDGE_CURVE('',#120,#120,#24,.T.);
#97=EDGE_CURVE('',#121,#121,#25,.T.);
#98=EDGE_CURVE('',#122,#123,#142,.T.);
#99=EDGE_CURVE('',#124,#123,#143,.T.);
#100=EDGE_CURVE('',#125,#124,#144,.T.);
#101=EDGE_CURVE('',#125,#122,#145,.T.);
#102=EDGE_CURVE('',#123,#126,#146,.T.);
#103=EDGE_CURVE('',#127,#126,#147,.T.);
#104=EDGE_CURVE('',#124,#127,#148,.T.);
#105=EDGE_CURVE('',#126,#128,#149,.T.);
#106=EDGE_CURVE('',#129,#128,#150,.T.);
#107=EDGE_CURVE('',#127,#129,#151,.T.);
#108=EDGE_CURVE('',#128,#122,#152,.T.);
#109=EDGE_CURVE('',#129,#125,#153,.T.);
#110=VERTEX_POINT('',#340);
#111=VERTEX_POINT('',#341);
#112=VERTEX_POINT('',#343);
#113=VERTEX_POINT('',#345);
#114=VERTEX_POINT('',#349);
#115=VERTEX_POINT('',#351);
#116=VERTEX_POINT('',#353);
#117=VERTEX_POINT('',#355);
#118=VERTEX_POINT('',#359);
#119=VERTEX_POINT('',#361);
#120=VERTEX_POINT('',#370);
#121=VERTEX_POINT('',#373);
#122=VERTEX_POINT('',#376);
#123=VERTEX_POINT('',#377);
#124=VERTEX_POINT('',#379);
#125=VERTEX_POINT('',#381);
#126=VERTEX_POINT('',#385);
#127=VERTEX_POINT('',#387);
#128=VERTEX_POINT('',#391);
#129=VERTEX_POINT('',#393);
#130=LINE('',#339,#154);
#131=LINE('',#342,#155);
#132=LINE('',#344,#156);
#133=LINE('',#346,#157);
#134=LINE('',#352,#158);
#135=LINE('',#354,#159);
#136=LINE('',#356,#160);
#137=LINE('',#358,#161);
#138=LINE('',#360,#162);
#139=LINE('',#362,#163);
#140=LINE('',#364,#164);
#141=LINE('',#365,#165);
#142=LINE('',#375,#166);
#143=LINE('',#378,#167);
#144=LINE('',#380,#168);
#145=LINE('',#382,#169);
#146=LINE('',#384,#170);
#147=LINE('',#386,#171);
#148=LINE('',#388,#172);
#149=LINE('',#390,#173);
#150=LINE('',#392,#174);
#151=LINE('',#394,#175);
#152=LINE('',#396,#176);
#153=LINE('',#397,#177);
#154=VECTOR('',#279,1000.);
#155=VECTOR('',#280,1000.);
#156=VECTOR('',#281,1000.);
#157=VECTOR('',#282,1000.);
#158=VECTOR('',#289,1000.);
#159=VECTOR('',#290,1000.);
#160=VECTOR('',#291,1000.);
#161=VECTOR('',#294,1000.);
#162=VECTOR('',#295,1000.);
#163=VECTOR('',#296,1000.);
#164=VECTOR('',#299,1000.);
#165=VECTOR('',#300,1000.);
#166=VECTOR('',#315,1000.);
#167=VECTOR('',#316,1000.);
#168=VECTOR('',#317,1000.);
#169=VECTOR('',#318,1000.);
#170=VECTOR('',#321,1000.);
#171=VECTOR('',#322,1000.);
#172=VECTOR('',#323,1000.);
#173=VECTOR('',#326,1000.);
#174=VECTOR('',#327,1000.);
#175=VECTOR('',#328,1000.);
#176=VECTOR('',#331,1000.);
#177=VECTOR('',#332,1000.);
#178=EDGE_LOOP('',(#26,#27,#28,#29));
#179=EDGE_LOOP('',(#30));
#180=EDGE_LOOP('',(#31));
#181=EDGE_LOOP('',(#32,#33,#34,#35));
#182=EDGE_LOOP('',(#36,#37,#38,#39));
#183=EDGE_LOOP('',(#40,#41,#42,#43));
#184=EDGE_LOOP('',(#44,#45,#46,#47));
#185=EDGE_LOOP('',(#48,#49,#50,#51));
#186=EDGE_LOOP('',(#52));
#187=EDGE_LOOP('',(#53));
#188=EDGE_LOOP('',(#54));
#189=EDGE_LOOP('',(#55));
#190=EDGE_LOOP('',(#56,#57,#58,#59));
#191=EDGE_LOOP('',(#60,#61,#62,#63));
#192=EDGE_LOOP('',(#64,#65,#66,#67));
#193=EDGE_LOOP('',(#68,#69,#70,#71));
#194=EDGE_LOOP('',(#72,#73,#74,#75));
#195=EDGE_LOOP('',(#76));
#196=EDGE_LOOP('',(#77));
#197=EDGE_LOOP('',(#78,#79,#80,#81));
#198=FACE_BOUND('',#178,.T.);
#199=FACE_BOUND('',#179,.T.);
#200=FACE_BOUND('',#180,.T.);
#201=FACE_BOUND('',#181,.T.);
#202=FACE_BOUND('',#182,.T.);
#203=FACE_BOUND('',#183,.T.);
#204=FACE_BOUND('',#184,.T.);
#205=FACE_BOUND('',#185,.T.);
#206=FACE_BOUND('',#186,.T.);
#207=FACE_BOUND('',#187,.T.);
#208=FACE_BOUND('',#188,.T.);
#209=FACE_BOUND('',#189,.T.);
#210=FACE_BOUND('',#190,.T.);
#211=FACE_BOUND('',#191,.T.);
#212=FACE_BOUND('',#192,.T.);
#213=FACE_BOUND('',#193,.T.);
#214=FACE_BOUND('',#194,.T.);
#215=FACE_BOUND('',#195,.T.);
#216=FACE_BOUND('',#196,.T.);
#217=FACE_BOUND('',#197,.T.);
#218=PLANE('',#257);
#219=PLANE('',#258);
#220=PLANE('',#261);
#221=PLANE('',#262);
#222=PLANE('',#263);
#223=PLANE('',#264);
#224=PLANE('',#269);
#225=PLANE('',#270);
#226=PLANE('',#271);
#227=PLANE('',#272);
#228=PLANE('',#273);
#229=PLANE('',#274);
#230=ADVANCED_FACE('',(#198),#218,.F.);
#231=ADVANCED_FACE('',(#199,#200,#201),#219,.F.);
#232=ADVANCED_FACE('',(#202),#220,.F.);
#233=ADVANCED_FACE('',(#203),#221,.F.);
#234=ADVANCED_FACE('',(#204),#222,.T.);
#235=ADVANCED_FACE('',(#205),#223,.F.);
#236=ADVANCED_FACE('',(#206,#207),#20,.T.);
#237=ADVANCED_FACE('',(#208,#209),#21,.T.);
#238=ADVANCED_FACE('',(#210),#224,.F.);
#239=ADVANCED_FACE('',(#211),#225,.F.);
#240=ADVANCED_FACE('',(#212),#226,.F.);
#241=ADVANCED_FACE('',(#213),#227,.F.);
#242=ADVANCED_FACE('',(#214),#228,.T.);
#243=ADVANCED_FACE('',(#215,#216,#217),#229,.F.);
#244=CLOSED_SHELL('',(#230,#231,#232,#233,#234,#235,#236,#237,#238,#239,
#240,#241,#242,#243));
#245=STYLED_ITEM('',(#246),#253);
#246=PRESENTATION_STYLE_ASSIGNMENT((#247));
#247=SURFACE_STYLE_USAGE(.BOTH.,#248);
#248=SURFACE_SIDE_STYLE('',(#249));
#249=SURFACE_STYLE_FILL_AREA(#250);
#250=FILL_AREA_STYLE('',(#251));
#251=FILL_AREA_STYLE_COLOUR('',#252);
#252=COLOUR_RGB('',0.645180702209473,0.678915679454803,0.699999988079071);
#253=MANIFOLD_SOLID_BREP('',#244);
#254=SHAPE_DEFINITION_REPRESENTATION(#406,#255);
#255=SHAPE_REPRESENTATION('Part8',(#256),#401);
#256=AXIS2_PLACEMENT_3D('',#337,#275,#276);
#257=AXIS2_PLACEMENT_3D('',#338,#277,#278);
#258=AXIS2_PLACEMENT_3D('',#347,#283,#284);
#259=AXIS2_PLACEMENT_3D('',#348,#285,#286);
#260=AXIS2_PLACEMENT_3D('',#350,#287,#288);
#261=AXIS2_PLACEMENT_3D('',#357,#292,#293);
#262=AXIS2_PLACEMENT_3D('',#363,#297,#298);
#263=AXIS2_PLACEMENT_3D('',#366,#301,#302);
#264=AXIS2_PLACEMENT_3D('',#367,#303,#304);
#265=AXIS2_PLACEMENT_3D('',#368,#305,#306);
#266=AXIS2_PLACEMENT_3D('',#369,#307,#308);
#267=AXIS2_PLACEMENT_3D('',#371,#309,#310);
#268=AXIS2_PLACEMENT_3D('',#372,#311,#312);
#269=AXIS2_PLACEMENT_3D('',#374,#313,#314);
#270=AXIS2_PLACEMENT_3D('',#383,#319,#320);
#271=AXIS2_PLACEMENT_3D('',#389,#324,#325);
#272=AXIS2_PLACEMENT_3D('',#395,#329,#330);
#273=AXIS2_PLACEMENT_3D('',#398,#333,#334);
#274=AXIS2_PLACEMENT_3D('',#399,#335,#336);
#275=DIRECTION('',(0.,0.,1.));
#276=DIRECTION('',(1.,0.,0.));
#277=DIRECTION('',(-1.,0.,0.));
#278=DIRECTION('',(0.,0.,1.));
#279=DIRECTION('',(0.,0.,1.));
#280=DIRECTION('',(0.,1.,0.));
#281=DIRECTION('',(0.,0.,1.));
#282=DIRECTION('',(0.,1.,0.));
#283=DIRECTION('',(0.,0.,-1.));
#284=DIRECTION('',(-1.,0.,0.));
#285=DIRECTION('',(0.,0.,-1.));
#286=DIRECTION('',(1.,0.,0.));
#287=DIRECTION('',(0.,0.,-1.));
#288=DIRECTION('',(1.,0.,0.));
#289=DIRECTION('',(-1.,0.,0.));
#290=DIRECTION('',(0.,1.,0.));
#291=DIRECTION('',(-1.,0.,0.));
#292=DIRECTION('',(1.,0.,0.));
#293=DIRECTION('',(0.,0.,-1.));
#294=DIRECTION('',(0.,0.,-1.));
#295=DIRECTION('',(0.,1.,0.));
#296=DIRECTION('',(0.,0.,-1.));
#297=DIRECTION('',(0.,0.,1.));
#298=DIRECTION('',(1.,0.,0.));
#299=DIRECTION('',(1.,0.,0.));
#300=DIRECTION('',(1.,0.,0.));
#301=DIRECTION('',(0.,-1.,0.));
#302=DIRECTION('',(0.,0.,-1.));
#303=DIRECTION('',(0.,-1.,0.));
#304=DIRECTION('',(0.,0.,-1.));
#305=DIRECTION('',(0.,0.,-1.));
#306=DIRECTION('',(-1.,0.,0.));
#307=DIRECTION('',(0.,0.,-1.));
#308=DIRECTION('',(1.,0.,0.));
#309=DIRECTION('',(0.,0.,-1.));
#310=DIRECTION('',(-1.,0.,0.));
#311=DIRECTION('',(0.,0.,-1.));
#312=DIRECTION('',(1.,0.,0.));
#313=DIRECTION('',(-1.,0.,0.));
#314=DIRECTION('',(0.,0.,1.));
#315=DIRECTION('',(0.,1.,0.));
#316=DIRECTION('',(0.,0.,-1.));
#317=DIRECTION('',(0.,1.,0.));
#318=DIRECTION('',(0.,0.,-1.));
#319=DIRECTION('',(0.,-1.,0.));
#320=DIRECTION('',(0.,0.,-1.));
#321=DIRECTION('',(-1.,0.,0.));
#322=DIRECTION('',(0.,0.,-1.));
#323=DIRECTION('',(-1.,0.,0.));
#324=DIRECTION('',(1.,0.,0.));
#325=DIRECTION('',(0.,0.,-1.));
#326=DIRECTION('',(0.,-1.,0.));
#327=DIRECTION('',(0.,0.,-1.));
#328=DIRECTION('',(0.,-1.,0.));
#329=DIRECTION('',(0.,1.,0.));
#330=DIRECTION('',(0.,0.,1.));
#331=DIRECTION('',(1.,0.,0.));
#332=DIRECTION('',(1.,0.,0.));
#333=DIRECTION('',(0.,0.,1.));
#334=DIRECTION('',(1.,0.,0.));
#335=DIRECTION('',(0.,0.,1.));
#336=DIRECTION('',(1.,0.,0.));
#337=CARTESIAN_POINT('',(0.,0.,0.));
#338=CARTESIAN_POINT('',(118.5,-14.5,-68.5));
#339=CARTESIAN_POINT('',(118.5,0.,-68.5));
#340=CARTESIAN_POINT('',(118.5,0.,-68.5));
#341=CARTESIAN_POINT('',(118.5,0.,68.5));
#342=CARTESIAN_POINT('',(118.5,-14.5,68.5));
#343=CARTESIAN_POINT('',(118.5,-14.5,68.5));
#344=CARTESIAN_POINT('',(118.5,-14.5,-68.5));
#345=CARTESIAN_POINT('',(118.5,-14.5,-68.5));
#346=CARTESIAN_POINT('',(118.5,-14.5,-68.5));
#347=CARTESIAN_POINT('',(118.5,-14.5,68.5));
#348=CARTESIAN_POINT('',(90.,-7.25,68.5));
#349=CARTESIAN_POINT('',(95.,-7.25,68.5));
#350=CARTESIAN_POINT('',(-90.,-7.25,68.5));
#351=CARTESIAN_POINT('',(-85.,-7.25,68.5));
#352=CARTESIAN_POINT('',(118.5,0.,68.5));
#353=CARTESIAN_POINT('',(-118.5,0.,68.5));
#354=CARTESIAN_POINT('',(-118.5,-14.5,68.5));
#355=CARTESIAN_POINT('',(-118.5,-14.5,68.5));
#356=CARTESIAN_POINT('',(118.5,-14.5,68.5));
#357=CARTESIAN_POINT('',(-118.5,-14.5,68.5));
#358=CARTESIAN_POINT('',(-118.5,0.,68.5));
#359=CARTESIAN_POINT('',(-118.5,0.,-68.5));
#360=CARTESIAN_POINT('',(-118.5,-14.5,-68.5));
#361=CARTESIAN_POINT('',(-118.5,-14.5,-68.5));
#362=CARTESIAN_POINT('',(-118.5,-14.5,68.5));
#363=CARTESIAN_POINT('',(-118.5,-14.5,-68.5));
#364=CARTESIAN_POINT('',(-118.5,0.,-68.5));
#365=CARTESIAN_POINT('',(-118.5,-14.5,-68.5));
#366=CARTESIAN_POINT('',(0.,-14.5,0.));
#367=CARTESIAN_POINT('',(0.,0.,0.));
#368=CARTESIAN_POINT('',(-90.,-7.25,468.5));
#369=CARTESIAN_POINT('',(-90.,-7.25,468.5));
#370=CARTESIAN_POINT('',(-85.,-7.25,468.5));
#371=CARTESIAN_POINT('',(90.,-7.25,468.5));
#372=CARTESIAN_POINT('',(90.,-7.25,468.5));
#373=CARTESIAN_POINT('',(95.,-7.25,468.5));
#374=CARTESIAN_POINT('',(118.,-34.25,515.));
#375=CARTESIAN_POINT('',(118.,-34.25,468.5));
#376=CARTESIAN_POINT('',(118.,-34.25,468.5));
#377=CARTESIAN_POINT('',(118.,19.75,468.5));
#378=CARTESIAN_POINT('',(118.,19.75,515.));
#379=CARTESIAN_POINT('',(118.,19.75,515.));
#380=CARTESIAN_POINT('',(118.,-34.25,515.));
#381=CARTESIAN_POINT('',(118.,-34.25,515.));
#382=CARTESIAN_POINT('',(118.,-34.25,515.));
#383=CARTESIAN_POINT('',(118.,19.75,515.));
#384=CARTESIAN_POINT('',(118.,19.75,468.5));
#385=CARTESIAN_POINT('',(-118.,19.75,468.5));
#386=CARTESIAN_POINT('',(-118.,19.75,515.));
#387=CARTESIAN_POINT('',(-118.,19.75,515.));
#388=CARTESIAN_POINT('',(118.,19.75,515.));
#389=CARTESIAN_POINT('',(-118.,19.75,515.));
#390=CARTESIAN_POINT('',(-118.,19.75,468.5));
#391=CARTESIAN_POINT('',(-118.,-34.25,468.5));
#392=CARTESIAN_POINT('',(-118.,-34.25,515.));
#393=CARTESIAN_POINT('',(-118.,-34.25,515.));
#394=CARTESIAN_POINT('',(-118.,19.75,515.));
#395=CARTESIAN_POINT('',(-118.,-34.25,515.));
#396=CARTESIAN_POINT('',(-118.,-34.25,468.5));
#397=CARTESIAN_POINT('',(-118.,-34.25,515.));
#398=CARTESIAN_POINT('',(0.,0.,515.));
#399=CARTESIAN_POINT('',(0.,0.,468.5));
#400=MECHANICAL_DESIGN_GEOMETRIC_PRESENTATION_REPRESENTATION('',(#245),
#401);
#401=(
GEOMETRIC_REPRESENTATION_CONTEXT(3)
GLOBAL_UNCERTAINTY_ASSIGNED_CONTEXT((#402))
GLOBAL_UNIT_ASSIGNED_CONTEXT((#405,#404,#403))
REPRESENTATION_CONTEXT('Part8','TOP_LEVEL_ASSEMBLY_PART')
);
#402=UNCERTAINTY_MEASURE_WITH_UNIT(LENGTH_MEASURE(0.005),#405,
'DISTANCE_ACCURACY_VALUE','Maximum Tolerance applied to model');
#403=(
NAMED_UNIT(*)
SI_UNIT($,.STERADIAN.)
SOLID_ANGLE_UNIT()
);
#404=(
NAMED_UNIT(*)
PLANE_ANGLE_UNIT()
SI_UNIT($,.RADIAN.)
);
#405=(
LENGTH_UNIT()
NAMED_UNIT(*)
SI_UNIT(.MILLI.,.METRE.)
);
#406=PRODUCT_DEFINITION_SHAPE('','',#407);
#407=PRODUCT_DEFINITION('','',#409,#408);
#408=PRODUCT_DEFINITION_CONTEXT('',#415,'design');
#409=PRODUCT_DEFINITION_FORMATION_WITH_SPECIFIED_SOURCE('','',#411,
 .NOT_KNOWN.);
#410=PRODUCT_RELATED_PRODUCT_CATEGORY('','',(#411));
#411=PRODUCT('Part8','Part8','Part8',(#413));
#412=PRODUCT_CATEGORY('','');
#413=PRODUCT_CONTEXT('',#415,'mechanical');
#414=APPLICATION_PROTOCOL_DEFINITION('international standard',
'automotive_design',2010,#415);
#415=APPLICATION_CONTEXT(
'core data for automotive mechanical design processes');
ENDSEC;
END-ISO-10303-21;
