ISO-10303-21;
HEADER;
/* Generated by software containing ST-Developer
 * from STEP Tools, Inc. (www.steptools.com) 
 */
/* OPTION: strings as raw bytes, not using required /X/ escapes */

FILE_DESCRIPTION(
/* description */ ('Unknown'),
/* implementation_level */ '2;1');

FILE_NAME(
/* name */ 'SNP 1530 WE LED 230V',
/* time_stamp */ '2018-06-19T08:25:32+02:00',
/* author */ ('Unknown'),
/* organization */ ('Unknown'),
/* preprocessor_version */ 'ST-DEVELOPER v16.7',
/* originating_system */ 'DEX',
/* authorisation */ $);

FILE_SCHEMA (('AUTOMOTIVE_DESIGN {1 0 10303 214 3 1 1}'));
ENDSEC;

DATA;
#10=PROPERTY_DEFINITION_REPRESENTATION(#14,#12);
#11=PROPERTY_DEFINITION_REPRESENTATION(#15,#13);
#12=REPRESENTATION('',(#16),#429);
#13=REPRESENTATION('',(#17),#429);
#14=PROPERTY_DEFINITION('pmi validation property','',#434);
#15=PROPERTY_DEFINITION('pmi validation property','',#434);
#16=VALUE_REPRESENTATION_ITEM('number of annotations',COUNT_MEASURE(0.));
#17=VALUE_REPRESENTATION_ITEM('number of views',COUNT_MEASURE(0.));
#18=SHAPE_REPRESENTATION_RELATIONSHIP('','',#267,#19);
#19=ADVANCED_BREP_SHAPE_REPRESENTATION('',(#265),#429);
#20=CONICAL_SURFACE('',#286,30.,0.785398163397449);
#21=CONICAL_SURFACE('',#289,30.,0.785398163397449);
#22=CYLINDRICAL_SURFACE('',#278,30.);
#23=CYLINDRICAL_SURFACE('',#281,30.);
#24=CIRCLE('',#274,30.);
#25=CIRCLE('',#275,30.);
#26=CIRCLE('',#279,30.);
#27=CIRCLE('',#282,30.);
#28=CIRCLE('',#284,20.);
#29=CIRCLE('',#285,20.);
#30=ORIENTED_EDGE('',*,*,#94,.F.);
#31=ORIENTED_EDGE('',*,*,#95,.F.);
#32=ORIENTED_EDGE('',*,*,#96,.T.);
#33=ORIENTED_EDGE('',*,*,#97,.T.);
#34=ORIENTED_EDGE('',*,*,#98,.F.);
#35=ORIENTED_EDGE('',*,*,#97,.F.);
#36=ORIENTED_EDGE('',*,*,#99,.T.);
#37=ORIENTED_EDGE('',*,*,#100,.T.);
#38=ORIENTED_EDGE('',*,*,#101,.F.);
#39=ORIENTED_EDGE('',*,*,#100,.F.);
#40=ORIENTED_EDGE('',*,*,#102,.T.);
#41=ORIENTED_EDGE('',*,*,#103,.T.);
#42=ORIENTED_EDGE('',*,*,#104,.F.);
#43=ORIENTED_EDGE('',*,*,#103,.F.);
#44=ORIENTED_EDGE('',*,*,#105,.T.);
#45=ORIENTED_EDGE('',*,*,#95,.T.);
#46=ORIENTED_EDGE('',*,*,#106,.T.);
#47=ORIENTED_EDGE('',*,*,#107,.T.);
#48=ORIENTED_EDGE('',*,*,#108,.T.);
#49=ORIENTED_EDGE('',*,*,#109,.T.);
#50=ORIENTED_EDGE('',*,*,#96,.F.);
#51=ORIENTED_EDGE('',*,*,#105,.F.);
#52=ORIENTED_EDGE('',*,*,#102,.F.);
#53=ORIENTED_EDGE('',*,*,#99,.F.);
#54=ORIENTED_EDGE('',*,*,#94,.T.);
#55=ORIENTED_EDGE('',*,*,#98,.T.);
#56=ORIENTED_EDGE('',*,*,#101,.T.);
#57=ORIENTED_EDGE('',*,*,#104,.T.);
#58=ORIENTED_EDGE('',*,*,#110,.F.);
#59=ORIENTED_EDGE('',*,*,#111,.T.);
#60=ORIENTED_EDGE('',*,*,#112,.T.);
#61=ORIENTED_EDGE('',*,*,#107,.F.);
#62=ORIENTED_EDGE('',*,*,#112,.F.);
#63=ORIENTED_EDGE('',*,*,#113,.T.);
#64=ORIENTED_EDGE('',*,*,#114,.T.);
#65=ORIENTED_EDGE('',*,*,#108,.F.);
#66=ORIENTED_EDGE('',*,*,#114,.F.);
#67=ORIENTED_EDGE('',*,*,#115,.T.);
#68=ORIENTED_EDGE('',*,*,#116,.T.);
#69=ORIENTED_EDGE('',*,*,#109,.F.);
#70=ORIENTED_EDGE('',*,*,#116,.F.);
#71=ORIENTED_EDGE('',*,*,#117,.T.);
#72=ORIENTED_EDGE('',*,*,#110,.T.);
#73=ORIENTED_EDGE('',*,*,#106,.F.);
#74=ORIENTED_EDGE('',*,*,#118,.T.);
#75=ORIENTED_EDGE('',*,*,#119,.T.);
#76=ORIENTED_EDGE('',*,*,#120,.T.);
#77=ORIENTED_EDGE('',*,*,#121,.T.);
#78=ORIENTED_EDGE('',*,*,#122,.F.);
#79=ORIENTED_EDGE('',*,*,#121,.F.);
#80=ORIENTED_EDGE('',*,*,#123,.F.);
#81=ORIENTED_EDGE('',*,*,#117,.F.);
#82=ORIENTED_EDGE('',*,*,#123,.T.);
#83=ORIENTED_EDGE('',*,*,#120,.F.);
#84=ORIENTED_EDGE('',*,*,#124,.F.);
#85=ORIENTED_EDGE('',*,*,#111,.F.);
#86=ORIENTED_EDGE('',*,*,#122,.T.);
#87=ORIENTED_EDGE('',*,*,#115,.F.);
#88=ORIENTED_EDGE('',*,*,#125,.F.);
#89=ORIENTED_EDGE('',*,*,#118,.F.);
#90=ORIENTED_EDGE('',*,*,#124,.T.);
#91=ORIENTED_EDGE('',*,*,#119,.F.);
#92=ORIENTED_EDGE('',*,*,#125,.T.);
#93=ORIENTED_EDGE('',*,*,#113,.F.);
#94=EDGE_CURVE('',#126,#127,#146,.T.);
#95=EDGE_CURVE('',#128,#126,#147,.T.);
#96=EDGE_CURVE('',#128,#129,#148,.T.);
#97=EDGE_CURVE('',#129,#127,#149,.T.);
#98=EDGE_CURVE('',#127,#130,#150,.T.);
#99=EDGE_CURVE('',#129,#131,#151,.T.);
#100=EDGE_CURVE('',#131,#130,#152,.T.);
#101=EDGE_CURVE('',#130,#132,#153,.T.);
#102=EDGE_CURVE('',#131,#133,#154,.T.);
#103=EDGE_CURVE('',#133,#132,#155,.T.);
#104=EDGE_CURVE('',#132,#126,#156,.T.);
#105=EDGE_CURVE('',#133,#128,#157,.T.);
#106=EDGE_CURVE('',#134,#135,#24,.T.);
#107=EDGE_CURVE('',#135,#136,#158,.T.);
#108=EDGE_CURVE('',#136,#137,#25,.T.);
#109=EDGE_CURVE('',#137,#134,#159,.T.);
#110=EDGE_CURVE('',#138,#135,#160,.T.);
#111=EDGE_CURVE('',#138,#139,#161,.T.);
#112=EDGE_CURVE('',#139,#136,#162,.T.);
#113=EDGE_CURVE('',#139,#140,#26,.T.);
#114=EDGE_CURVE('',#140,#137,#163,.T.);
#115=EDGE_CURVE('',#140,#141,#164,.T.);
#116=EDGE_CURVE('',#141,#134,#165,.T.);
#117=EDGE_CURVE('',#141,#138,#27,.T.);
#118=EDGE_CURVE('',#142,#143,#166,.T.);
#119=EDGE_CURVE('',#143,#144,#28,.F.);
#120=EDGE_CURVE('',#144,#145,#167,.T.);
#121=EDGE_CURVE('',#145,#142,#29,.F.);
#122=EDGE_CURVE('',#142,#141,#168,.T.);
#123=EDGE_CURVE('',#138,#145,#169,.T.);
#124=EDGE_CURVE('',#139,#144,#170,.T.);
#125=EDGE_CURVE('',#143,#140,#171,.T.);
#126=VERTEX_POINT('',#363);
#127=VERTEX_POINT('',#364);
#128=VERTEX_POINT('',#366);
#129=VERTEX_POINT('',#368);
#130=VERTEX_POINT('',#372);
#131=VERTEX_POINT('',#374);
#132=VERTEX_POINT('',#378);
#133=VERTEX_POINT('',#380);
#134=VERTEX_POINT('',#387);
#135=VERTEX_POINT('',#388);
#136=VERTEX_POINT('',#390);
#137=VERTEX_POINT('',#392);
#138=VERTEX_POINT('',#397);
#139=VERTEX_POINT('',#399);
#140=VERTEX_POINT('',#403);
#141=VERTEX_POINT('',#407);
#142=VERTEX_POINT('',#413);
#143=VERTEX_POINT('',#414);
#144=VERTEX_POINT('',#416);
#145=VERTEX_POINT('',#418);
#146=LINE('',#362,#172);
#147=LINE('',#365,#173);
#148=LINE('',#367,#174);
#149=LINE('',#369,#175);
#150=LINE('',#371,#176);
#151=LINE('',#373,#177);
#152=LINE('',#375,#178);
#153=LINE('',#377,#179);
#154=LINE('',#379,#180);
#155=LINE('',#381,#181);
#156=LINE('',#383,#182);
#157=LINE('',#384,#183);
#158=LINE('',#389,#184);
#159=LINE('',#393,#185);
#160=LINE('',#396,#186);
#161=LINE('',#398,#187);
#162=LINE('',#400,#188);
#163=LINE('',#404,#189);
#164=LINE('',#406,#190);
#165=LINE('',#408,#191);
#166=LINE('',#412,#192);
#167=LINE('',#417,#193);
#168=LINE('',#421,#194);
#169=LINE('',#422,#195);
#170=LINE('',#424,#196);
#171=LINE('',#426,#197);
#172=VECTOR('',#294,1000.);
#173=VECTOR('',#295,1000.);
#174=VECTOR('',#296,1000.);
#175=VECTOR('',#297,1000.);
#176=VECTOR('',#300,1000.);
#177=VECTOR('',#301,1000.);
#178=VECTOR('',#302,1000.);
#179=VECTOR('',#305,1000.);
#180=VECTOR('',#306,1000.);
#181=VECTOR('',#307,1000.);
#182=VECTOR('',#310,1000.);
#183=VECTOR('',#311,1000.);
#184=VECTOR('',#316,1000.);
#185=VECTOR('',#319,1000.);
#186=VECTOR('',#324,1000.);
#187=VECTOR('',#325,1000.);
#188=VECTOR('',#326,1000.);
#189=VECTOR('',#331,1000.);
#190=VECTOR('',#334,1000.);
#191=VECTOR('',#335,1000.);
#192=VECTOR('',#342,1000.);
#193=VECTOR('',#345,1000.);
#194=VECTOR('',#350,1000.);
#195=VECTOR('',#351,1000.);
#196=VECTOR('',#354,1000.);
#197=VECTOR('',#357,1000.);
#198=EDGE_LOOP('',(#30,#31,#32,#33));
#199=EDGE_LOOP('',(#34,#35,#36,#37));
#200=EDGE_LOOP('',(#38,#39,#40,#41));
#201=EDGE_LOOP('',(#42,#43,#44,#45));
#202=EDGE_LOOP('',(#46,#47,#48,#49));
#203=EDGE_LOOP('',(#50,#51,#52,#53));
#204=EDGE_LOOP('',(#54,#55,#56,#57));
#205=EDGE_LOOP('',(#58,#59,#60,#61));
#206=EDGE_LOOP('',(#62,#63,#64,#65));
#207=EDGE_LOOP('',(#66,#67,#68,#69));
#208=EDGE_LOOP('',(#70,#71,#72,#73));
#209=EDGE_LOOP('',(#74,#75,#76,#77));
#210=EDGE_LOOP('',(#78,#79,#80,#81));
#211=EDGE_LOOP('',(#82,#83,#84,#85));
#212=EDGE_LOOP('',(#86,#87,#88,#89));
#213=EDGE_LOOP('',(#90,#91,#92,#93));
#214=FACE_BOUND('',#198,.T.);
#215=FACE_BOUND('',#199,.T.);
#216=FACE_BOUND('',#200,.T.);
#217=FACE_BOUND('',#201,.T.);
#218=FACE_BOUND('',#202,.T.);
#219=FACE_BOUND('',#203,.T.);
#220=FACE_BOUND('',#204,.T.);
#221=FACE_BOUND('',#205,.T.);
#222=FACE_BOUND('',#206,.T.);
#223=FACE_BOUND('',#207,.T.);
#224=FACE_BOUND('',#208,.T.);
#225=FACE_BOUND('',#209,.T.);
#226=FACE_BOUND('',#210,.T.);
#227=FACE_BOUND('',#211,.T.);
#228=FACE_BOUND('',#212,.T.);
#229=FACE_BOUND('',#213,.T.);
#230=PLANE('',#269);
#231=PLANE('',#270);
#232=PLANE('',#271);
#233=PLANE('',#272);
#234=PLANE('',#273);
#235=PLANE('',#276);
#236=PLANE('',#277);
#237=PLANE('',#280);
#238=PLANE('',#283);
#239=PLANE('',#287);
#240=PLANE('',#288);
#241=ADVANCED_FACE('',(#214),#230,.T.);
#242=ADVANCED_FACE('',(#215),#231,.T.);
#243=ADVANCED_FACE('',(#216),#232,.T.);
#244=ADVANCED_FACE('',(#217),#233,.T.);
#245=ADVANCED_FACE('',(#218,#219),#234,.F.);
#246=ADVANCED_FACE('',(#220),#235,.T.);
#247=ADVANCED_FACE('',(#221),#236,.T.);
#248=ADVANCED_FACE('',(#222),#22,.T.);
#249=ADVANCED_FACE('',(#223),#237,.T.);
#250=ADVANCED_FACE('',(#224),#23,.T.);
#251=ADVANCED_FACE('',(#225),#238,.F.);
#252=ADVANCED_FACE('',(#226),#20,.T.);
#253=ADVANCED_FACE('',(#227),#239,.T.);
#254=ADVANCED_FACE('',(#228),#240,.T.);
#255=ADVANCED_FACE('',(#229),#21,.T.);
#256=CLOSED_SHELL('',(#241,#242,#243,#244,#245,#246,#247,#248,#249,#250,
#251,#252,#253,#254,#255));
#257=STYLED_ITEM('',(#258),#265);
#258=PRESENTATION_STYLE_ASSIGNMENT((#259));
#259=SURFACE_STYLE_USAGE(.BOTH.,#260);
#260=SURFACE_SIDE_STYLE('',(#261));
#261=SURFACE_STYLE_FILL_AREA(#262);
#262=FILL_AREA_STYLE('',(#263));
#263=FILL_AREA_STYLE_COLOUR('',#264);
#264=COLOUR_RGB('',0.645180702209473,0.678915679454803,0.699999988079071);
#265=MANIFOLD_SOLID_BREP('',#256);
#266=SHAPE_DEFINITION_REPRESENTATION(#434,#267);
#267=SHAPE_REPRESENTATION('Part6',(#268),#429);
#268=AXIS2_PLACEMENT_3D('',#360,#290,#291);
#269=AXIS2_PLACEMENT_3D('',#361,#292,#293);
#270=AXIS2_PLACEMENT_3D('',#370,#298,#299);
#271=AXIS2_PLACEMENT_3D('',#376,#303,#304);
#272=AXIS2_PLACEMENT_3D('',#382,#308,#309);
#273=AXIS2_PLACEMENT_3D('',#385,#312,#313);
#274=AXIS2_PLACEMENT_3D('',#386,#314,#315);
#275=AXIS2_PLACEMENT_3D('',#391,#317,#318);
#276=AXIS2_PLACEMENT_3D('',#394,#320,#321);
#277=AXIS2_PLACEMENT_3D('',#395,#322,#323);
#278=AXIS2_PLACEMENT_3D('',#401,#327,#328);
#279=AXIS2_PLACEMENT_3D('',#402,#329,#330);
#280=AXIS2_PLACEMENT_3D('',#405,#332,#333);
#281=AXIS2_PLACEMENT_3D('',#409,#336,#337);
#282=AXIS2_PLACEMENT_3D('',#410,#338,#339);
#283=AXIS2_PLACEMENT_3D('',#411,#340,#341);
#284=AXIS2_PLACEMENT_3D('',#415,#343,#344);
#285=AXIS2_PLACEMENT_3D('',#419,#346,#347);
#286=AXIS2_PLACEMENT_3D('',#420,#348,#349);
#287=AXIS2_PLACEMENT_3D('',#423,#352,#353);
#288=AXIS2_PLACEMENT_3D('',#425,#355,#356);
#289=AXIS2_PLACEMENT_3D('',#427,#358,#359);
#290=DIRECTION('',(0.,0.,1.));
#291=DIRECTION('',(1.,0.,0.));
#292=DIRECTION('',(1.,0.,0.));
#293=DIRECTION('',(0.,0.,-1.));
#294=DIRECTION('',(0.,0.,1.));
#295=DIRECTION('',(0.,-1.,0.));
#296=DIRECTION('',(0.,0.,1.));
#297=DIRECTION('',(0.,-1.,0.));
#298=DIRECTION('',(-1.23541137755025E-16,0.,1.));
#299=DIRECTION('',(1.,0.,1.23541137755025E-16));
#300=DIRECTION('',(-1.,0.,-1.23541137755025E-16));
#301=DIRECTION('',(-1.,0.,-1.23541137755025E-16));
#302=DIRECTION('',(0.,-1.,0.));
#303=DIRECTION('',(-1.,0.,0.));
#304=DIRECTION('',(0.,0.,1.));
#305=DIRECTION('',(0.,0.,-1.));
#306=DIRECTION('',(0.,0.,-1.));
#307=DIRECTION('',(0.,-1.,0.));
#308=DIRECTION('',(1.23541137755025E-16,0.,-1.));
#309=DIRECTION('',(-1.,0.,-1.23541137755025E-16));
#310=DIRECTION('',(1.,0.,1.23541137755025E-16));
#311=DIRECTION('',(1.,0.,1.23541137755025E-16));
#312=DIRECTION('',(0.,-1.,0.));
#313=DIRECTION('',(0.,0.,-1.));
#314=DIRECTION('',(0.,-1.,0.));
#315=DIRECTION('',(-1.,0.,0.));
#316=DIRECTION('',(-1.,0.,0.));
#317=DIRECTION('',(0.,-1.,0.));
#318=DIRECTION('',(-1.,0.,0.));
#319=DIRECTION('',(1.,0.,0.));
#320=DIRECTION('',(0.,-1.,0.));
#321=DIRECTION('',(0.,0.,-1.));
#322=DIRECTION('',(0.,0.,1.));
#323=DIRECTION('',(1.,0.,0.));
#324=DIRECTION('',(0.,-1.,0.));
#325=DIRECTION('',(-1.,0.,0.));
#326=DIRECTION('',(0.,-1.,0.));
#327=DIRECTION('',(0.,-1.,0.));
#328=DIRECTION('',(0.,0.,-1.));
#329=DIRECTION('',(0.,-1.,0.));
#330=DIRECTION('',(0.,0.,-1.));
#331=DIRECTION('',(0.,-1.,0.));
#332=DIRECTION('',(0.,0.,-1.));
#333=DIRECTION('',(-1.,0.,0.));
#334=DIRECTION('',(1.,0.,0.));
#335=DIRECTION('',(0.,-1.,0.));
#336=DIRECTION('',(0.,-1.,0.));
#337=DIRECTION('',(0.,0.,-1.));
#338=DIRECTION('',(0.,-1.,0.));
#339=DIRECTION('',(0.,0.,-1.));
#340=DIRECTION('',(0.,-1.,0.));
#341=DIRECTION('',(0.,0.,-1.));
#342=DIRECTION('',(-1.,0.,0.));
#343=DIRECTION('',(0.,-1.,0.));
#344=DIRECTION('',(0.,0.,-1.));
#345=DIRECTION('',(1.,0.,0.));
#346=DIRECTION('',(0.,-1.,0.));
#347=DIRECTION('',(0.,0.,-1.));
#348=DIRECTION('',(0.,-1.,0.));
#349=DIRECTION('',(0.,0.,-1.));
#350=DIRECTION('',(0.,-0.707106781186547,-0.707106781186548));
#351=DIRECTION('',(0.,0.707106781186547,-0.707106781186548));
#352=DIRECTION('',(0.,0.707106781186548,0.707106781186547));
#353=DIRECTION('',(1.,0.,0.));
#354=DIRECTION('',(0.,0.707106781186547,-0.707106781186548));
#355=DIRECTION('',(0.,0.707106781186548,-0.707106781186547));
#356=DIRECTION('',(-1.,0.,0.));
#357=DIRECTION('',(0.,-0.707106781186547,-0.707106781186548));
#358=DIRECTION('',(0.,-1.,0.));
#359=DIRECTION('',(0.,0.,-1.));
#360=CARTESIAN_POINT('',(0.,0.,0.));
#361=CARTESIAN_POINT('',(168.5,14.5,-93.5));
#362=CARTESIAN_POINT('',(168.5,0.,-93.5));
#363=CARTESIAN_POINT('',(168.5,0.,-93.5));
#364=CARTESIAN_POINT('',(168.5,0.,93.5));
#365=CARTESIAN_POINT('',(168.5,14.5,-93.5));
#366=CARTESIAN_POINT('',(168.5,14.5,-93.5));
#367=CARTESIAN_POINT('',(168.5,14.5,-93.5));
#368=CARTESIAN_POINT('',(168.5,14.5,93.5));
#369=CARTESIAN_POINT('',(168.5,14.5,93.5));
#370=CARTESIAN_POINT('',(168.5,14.5,93.5));
#371=CARTESIAN_POINT('',(168.5,0.,93.5));
#372=CARTESIAN_POINT('',(-168.5,0.,93.4999999999999));
#373=CARTESIAN_POINT('',(168.5,14.5,93.5));
#374=CARTESIAN_POINT('',(-168.5,14.5,93.4999999999999));
#375=CARTESIAN_POINT('',(-168.5,14.5,93.4999999999999));
#376=CARTESIAN_POINT('',(-168.5,14.5,93.4999999999999));
#377=CARTESIAN_POINT('',(-168.5,0.,93.4999999999999));
#378=CARTESIAN_POINT('',(-168.5,0.,-93.5));
#379=CARTESIAN_POINT('',(-168.5,14.5,93.4999999999999));
#380=CARTESIAN_POINT('',(-168.5,14.5,-93.5));
#381=CARTESIAN_POINT('',(-168.5,14.5,-93.5));
#382=CARTESIAN_POINT('',(-168.5,14.5,-93.5));
#383=CARTESIAN_POINT('',(-168.5,0.,-93.5));
#384=CARTESIAN_POINT('',(-168.5,14.5,-93.5));
#385=CARTESIAN_POINT('',(0.,14.5,0.));
#386=CARTESIAN_POINT('',(50.,14.5,0.));
#387=CARTESIAN_POINT('',(50.,14.5,-30.));
#388=CARTESIAN_POINT('',(50.,14.5,30.));
#389=CARTESIAN_POINT('',(-50.,14.5,30.));
#390=CARTESIAN_POINT('',(-50.,14.5,30.));
#391=CARTESIAN_POINT('',(-50.,14.5,0.));
#392=CARTESIAN_POINT('',(-50.,14.5,-30.));
#393=CARTESIAN_POINT('',(50.,14.5,-30.));
#394=CARTESIAN_POINT('',(0.,0.,0.));
#395=CARTESIAN_POINT('',(-50.,74.5,30.));
#396=CARTESIAN_POINT('',(50.,74.5,30.));
#397=CARTESIAN_POINT('',(50.,64.5,30.));
#398=CARTESIAN_POINT('',(-50.,64.5,30.));
#399=CARTESIAN_POINT('',(-50.,64.5,30.));
#400=CARTESIAN_POINT('',(-50.,74.5,30.));
#401=CARTESIAN_POINT('',(-50.,74.5,0.));
#402=CARTESIAN_POINT('',(-50.,64.5,0.));
#403=CARTESIAN_POINT('',(-50.,64.5,-30.));
#404=CARTESIAN_POINT('',(-50.,74.5,-30.));
#405=CARTESIAN_POINT('',(50.,74.5,-30.));
#406=CARTESIAN_POINT('',(50.,64.5,-30.));
#407=CARTESIAN_POINT('',(50.,64.5,-30.));
#408=CARTESIAN_POINT('',(50.,74.5,-30.));
#409=CARTESIAN_POINT('',(50.,74.5,0.));
#410=CARTESIAN_POINT('',(50.,64.5,0.));
#411=CARTESIAN_POINT('',(-50.,74.5,0.));
#412=CARTESIAN_POINT('',(-50.,74.5,-20.));
#413=CARTESIAN_POINT('',(50.,74.5,-20.));
#414=CARTESIAN_POINT('',(-50.,74.5,-20.));
#415=CARTESIAN_POINT('',(-50.,74.5,0.));
#416=CARTESIAN_POINT('',(-50.,74.5,20.));
#417=CARTESIAN_POINT('',(50.,74.5,20.));
#418=CARTESIAN_POINT('',(50.,74.5,20.));
#419=CARTESIAN_POINT('',(50.,74.5,0.));
#420=CARTESIAN_POINT('',(50.,64.5,0.));
#421=CARTESIAN_POINT('',(50.,74.5,-20.));
#422=CARTESIAN_POINT('',(50.,64.5,30.));
#423=CARTESIAN_POINT('',(-50.,64.5,30.));
#424=CARTESIAN_POINT('',(-50.,64.5,30.));
#425=CARTESIAN_POINT('',(50.,64.5,-30.));
#426=CARTESIAN_POINT('',(-50.,74.5,-20.));
#427=CARTESIAN_POINT('',(-50.,64.5,0.));
#428=MECHANICAL_DESIGN_GEOMETRIC_PRESENTATION_REPRESENTATION('',(#257),
#429);
#429=(
GEOMETRIC_REPRESENTATION_CONTEXT(3)
GLOBAL_UNCERTAINTY_ASSIGNED_CONTEXT((#430))
GLOBAL_UNIT_ASSIGNED_CONTEXT((#433,#432,#431))
REPRESENTATION_CONTEXT('Part6','TOP_LEVEL_ASSEMBLY_PART')
);
#430=UNCERTAINTY_MEASURE_WITH_UNIT(LENGTH_MEASURE(0.005),#433,
'DISTANCE_ACCURACY_VALUE','Maximum Tolerance applied to model');
#431=(
NAMED_UNIT(*)
SI_UNIT($,.STERADIAN.)
SOLID_ANGLE_UNIT()
);
#432=(
NAMED_UNIT(*)
PLANE_ANGLE_UNIT()
SI_UNIT($,.RADIAN.)
);
#433=(
LENGTH_UNIT()
NAMED_UNIT(*)
SI_UNIT(.MILLI.,.METRE.)
);
#434=PRODUCT_DEFINITION_SHAPE('','',#435);
#435=PRODUCT_DEFINITION('','',#437,#436);
#436=PRODUCT_DEFINITION_CONTEXT('',#443,'design');
#437=PRODUCT_DEFINITION_FORMATION_WITH_SPECIFIED_SOURCE('','',#439,
 .NOT_KNOWN.);
#438=PRODUCT_RELATED_PRODUCT_CATEGORY('','',(#439));
#439=PRODUCT('Part6','Part6','Part6',(#441));
#440=PRODUCT_CATEGORY('','');
#441=PRODUCT_CONTEXT('',#443,'mechanical');
#442=APPLICATION_PROTOCOL_DEFINITION('international standard',
'automotive_design',2010,#443);
#443=APPLICATION_CONTEXT(
'core data for automotive mechanical design processes');
ENDSEC;
END-ISO-10303-21;
