ISO-10303-21;
HEADER;
/* Generated by software containing ST-Developer
 * from STEP Tools, Inc. (www.steptools.com) 
 */
/* OPTION: strings as raw bytes, not using required /X/ escapes */

FILE_DESCRIPTION(
/* description */ ('Unknown'),
/* implementation_level */ '2;1');

FILE_NAME(
/* name */ 'SNP 7183',
/* time_stamp */ '2018-08-07T11:04:15+02:00',
/* author */ ('Unknown'),
/* organization */ ('Unknown'),
/* preprocessor_version */ 'ST-DEVELOPER v16.7',
/* originating_system */ 'DEX',
/* authorisation */ $);

FILE_SCHEMA (('AUTOMOTIVE_DESIGN {1 0 10303 214 3 1 1}'));
ENDSEC;

DATA;
#10=PROPERTY_DEFINITION_REPRESENTATION(#14,#12);
#11=PROPERTY_DEFINITION_REPRESENTATION(#15,#13);
#12=REPRESENTATION('',(#16),#377);
#13=REPRESENTATION('',(#17),#377);
#14=PROPERTY_DEFINITION('pmi validation property','',#382);
#15=PROPERTY_DEFINITION('pmi validation property','',#382);
#16=VALUE_REPRESENTATION_ITEM('number of annotations',COUNT_MEASURE(0.));
#17=VALUE_REPRESENTATION_ITEM('number of views',COUNT_MEASURE(0.));
#18=SHAPE_REPRESENTATION_RELATIONSHIP('','',#243,#19);
#19=ADVANCED_BREP_SHAPE_REPRESENTATION('',(#241),#377);
#20=ORIENTED_EDGE('',*,*,#76,.T.);
#21=ORIENTED_EDGE('',*,*,#77,.T.);
#22=ORIENTED_EDGE('',*,*,#78,.F.);
#23=ORIENTED_EDGE('',*,*,#79,.T.);
#24=ORIENTED_EDGE('',*,*,#78,.T.);
#25=ORIENTED_EDGE('',*,*,#80,.T.);
#26=ORIENTED_EDGE('',*,*,#81,.F.);
#27=ORIENTED_EDGE('',*,*,#82,.T.);
#28=ORIENTED_EDGE('',*,*,#81,.T.);
#29=ORIENTED_EDGE('',*,*,#83,.T.);
#30=ORIENTED_EDGE('',*,*,#84,.F.);
#31=ORIENTED_EDGE('',*,*,#85,.T.);
#32=ORIENTED_EDGE('',*,*,#84,.T.);
#33=ORIENTED_EDGE('',*,*,#86,.T.);
#34=ORIENTED_EDGE('',*,*,#76,.F.);
#35=ORIENTED_EDGE('',*,*,#87,.T.);
#36=ORIENTED_EDGE('',*,*,#88,.T.);
#37=ORIENTED_EDGE('',*,*,#89,.T.);
#38=ORIENTED_EDGE('',*,*,#90,.T.);
#39=ORIENTED_EDGE('',*,*,#91,.T.);
#40=ORIENTED_EDGE('',*,*,#92,.T.);
#41=ORIENTED_EDGE('',*,*,#93,.T.);
#42=ORIENTED_EDGE('',*,*,#94,.T.);
#43=ORIENTED_EDGE('',*,*,#95,.T.);
#44=ORIENTED_EDGE('',*,*,#96,.F.);
#45=ORIENTED_EDGE('',*,*,#95,.F.);
#46=ORIENTED_EDGE('',*,*,#97,.F.);
#47=ORIENTED_EDGE('',*,*,#86,.F.);
#48=ORIENTED_EDGE('',*,*,#97,.T.);
#49=ORIENTED_EDGE('',*,*,#94,.F.);
#50=ORIENTED_EDGE('',*,*,#98,.F.);
#51=ORIENTED_EDGE('',*,*,#77,.F.);
#52=ORIENTED_EDGE('',*,*,#96,.T.);
#53=ORIENTED_EDGE('',*,*,#83,.F.);
#54=ORIENTED_EDGE('',*,*,#99,.F.);
#55=ORIENTED_EDGE('',*,*,#92,.F.);
#56=ORIENTED_EDGE('',*,*,#98,.T.);
#57=ORIENTED_EDGE('',*,*,#93,.F.);
#58=ORIENTED_EDGE('',*,*,#99,.T.);
#59=ORIENTED_EDGE('',*,*,#80,.F.);
#60=ORIENTED_EDGE('',*,*,#100,.F.);
#61=ORIENTED_EDGE('',*,*,#87,.F.);
#62=ORIENTED_EDGE('',*,*,#101,.F.);
#63=ORIENTED_EDGE('',*,*,#91,.F.);
#64=ORIENTED_EDGE('',*,*,#101,.T.);
#65=ORIENTED_EDGE('',*,*,#79,.F.);
#66=ORIENTED_EDGE('',*,*,#102,.F.);
#67=ORIENTED_EDGE('',*,*,#88,.F.);
#68=ORIENTED_EDGE('',*,*,#100,.T.);
#69=ORIENTED_EDGE('',*,*,#90,.F.);
#70=ORIENTED_EDGE('',*,*,#103,.F.);
#71=ORIENTED_EDGE('',*,*,#85,.F.);
#72=ORIENTED_EDGE('',*,*,#102,.T.);
#73=ORIENTED_EDGE('',*,*,#82,.F.);
#74=ORIENTED_EDGE('',*,*,#103,.T.);
#75=ORIENTED_EDGE('',*,*,#89,.F.);
#76=EDGE_CURVE('',#104,#105,#120,.T.);
#77=EDGE_CURVE('',#105,#106,#121,.T.);
#78=EDGE_CURVE('',#107,#106,#122,.T.);
#79=EDGE_CURVE('',#107,#104,#123,.T.);
#80=EDGE_CURVE('',#106,#108,#124,.T.);
#81=EDGE_CURVE('',#109,#108,#125,.T.);
#82=EDGE_CURVE('',#109,#107,#126,.T.);
#83=EDGE_CURVE('',#108,#110,#127,.T.);
#84=EDGE_CURVE('',#111,#110,#128,.T.);
#85=EDGE_CURVE('',#111,#109,#129,.T.);
#86=EDGE_CURVE('',#110,#105,#130,.T.);
#87=EDGE_CURVE('',#104,#111,#131,.T.);
#88=EDGE_CURVE('',#112,#113,#132,.T.);
#89=EDGE_CURVE('',#113,#114,#133,.T.);
#90=EDGE_CURVE('',#114,#115,#134,.T.);
#91=EDGE_CURVE('',#115,#112,#135,.T.);
#92=EDGE_CURVE('',#116,#117,#136,.T.);
#93=EDGE_CURVE('',#117,#118,#137,.T.);
#94=EDGE_CURVE('',#118,#119,#138,.T.);
#95=EDGE_CURVE('',#119,#116,#139,.T.);
#96=EDGE_CURVE('',#116,#110,#140,.T.);
#97=EDGE_CURVE('',#105,#119,#141,.F.);
#98=EDGE_CURVE('',#106,#118,#142,.F.);
#99=EDGE_CURVE('',#117,#108,#143,.F.);
#100=EDGE_CURVE('',#111,#115,#144,.T.);
#101=EDGE_CURVE('',#112,#104,#145,.F.);
#102=EDGE_CURVE('',#113,#107,#146,.F.);
#103=EDGE_CURVE('',#109,#114,#147,.F.);
#104=VERTEX_POINT('',#320);
#105=VERTEX_POINT('',#321);
#106=VERTEX_POINT('',#323);
#107=VERTEX_POINT('',#325);
#108=VERTEX_POINT('',#329);
#109=VERTEX_POINT('',#331);
#110=VERTEX_POINT('',#335);
#111=VERTEX_POINT('',#337);
#112=VERTEX_POINT('',#344);
#113=VERTEX_POINT('',#345);
#114=VERTEX_POINT('',#347);
#115=VERTEX_POINT('',#349);
#116=VERTEX_POINT('',#353);
#117=VERTEX_POINT('',#354);
#118=VERTEX_POINT('',#356);
#119=VERTEX_POINT('',#358);
#120=LINE('',#319,#148);
#121=LINE('',#322,#149);
#122=LINE('',#324,#150);
#123=LINE('',#326,#151);
#124=LINE('',#328,#152);
#125=LINE('',#330,#153);
#126=LINE('',#332,#154);
#127=LINE('',#334,#155);
#128=LINE('',#336,#156);
#129=LINE('',#338,#157);
#130=LINE('',#340,#158);
#131=LINE('',#341,#159);
#132=LINE('',#343,#160);
#133=LINE('',#346,#161);
#134=LINE('',#348,#162);
#135=LINE('',#350,#163);
#136=LINE('',#352,#164);
#137=LINE('',#355,#165);
#138=LINE('',#357,#166);
#139=LINE('',#359,#167);
#140=LINE('',#361,#168);
#141=LINE('',#362,#169);
#142=LINE('',#364,#170);
#143=LINE('',#366,#171);
#144=LINE('',#369,#172);
#145=LINE('',#370,#173);
#146=LINE('',#372,#174);
#147=LINE('',#374,#175);
#148=VECTOR('',#263,1000.);
#149=VECTOR('',#264,1000.);
#150=VECTOR('',#265,1000.);
#151=VECTOR('',#266,1000.);
#152=VECTOR('',#269,1000.);
#153=VECTOR('',#270,1000.);
#154=VECTOR('',#271,1000.);
#155=VECTOR('',#274,1000.);
#156=VECTOR('',#275,1000.);
#157=VECTOR('',#276,1000.);
#158=VECTOR('',#279,1000.);
#159=VECTOR('',#280,1000.);
#160=VECTOR('',#283,1000.);
#161=VECTOR('',#284,1000.);
#162=VECTOR('',#285,1000.);
#163=VECTOR('',#286,1000.);
#164=VECTOR('',#289,1000.);
#165=VECTOR('',#290,1000.);
#166=VECTOR('',#291,1000.);
#167=VECTOR('',#292,1000.);
#168=VECTOR('',#295,1000.);
#169=VECTOR('',#296,1000.);
#170=VECTOR('',#299,1000.);
#171=VECTOR('',#302,1000.);
#172=VECTOR('',#307,1000.);
#173=VECTOR('',#308,1000.);
#174=VECTOR('',#311,1000.);
#175=VECTOR('',#314,1000.);
#176=EDGE_LOOP('',(#20,#21,#22,#23));
#177=EDGE_LOOP('',(#24,#25,#26,#27));
#178=EDGE_LOOP('',(#28,#29,#30,#31));
#179=EDGE_LOOP('',(#32,#33,#34,#35));
#180=EDGE_LOOP('',(#36,#37,#38,#39));
#181=EDGE_LOOP('',(#40,#41,#42,#43));
#182=EDGE_LOOP('',(#44,#45,#46,#47));
#183=EDGE_LOOP('',(#48,#49,#50,#51));
#184=EDGE_LOOP('',(#52,#53,#54,#55));
#185=EDGE_LOOP('',(#56,#57,#58,#59));
#186=EDGE_LOOP('',(#60,#61,#62,#63));
#187=EDGE_LOOP('',(#64,#65,#66,#67));
#188=EDGE_LOOP('',(#68,#69,#70,#71));
#189=EDGE_LOOP('',(#72,#73,#74,#75));
#190=FACE_BOUND('',#176,.T.);
#191=FACE_BOUND('',#177,.T.);
#192=FACE_BOUND('',#178,.T.);
#193=FACE_BOUND('',#179,.T.);
#194=FACE_BOUND('',#180,.T.);
#195=FACE_BOUND('',#181,.T.);
#196=FACE_BOUND('',#182,.T.);
#197=FACE_BOUND('',#183,.T.);
#198=FACE_BOUND('',#184,.T.);
#199=FACE_BOUND('',#185,.T.);
#200=FACE_BOUND('',#186,.T.);
#201=FACE_BOUND('',#187,.T.);
#202=FACE_BOUND('',#188,.T.);
#203=FACE_BOUND('',#189,.T.);
#204=PLANE('',#245);
#205=PLANE('',#246);
#206=PLANE('',#247);
#207=PLANE('',#248);
#208=PLANE('',#249);
#209=PLANE('',#250);
#210=PLANE('',#251);
#211=PLANE('',#252);
#212=PLANE('',#253);
#213=PLANE('',#254);
#214=PLANE('',#255);
#215=PLANE('',#256);
#216=PLANE('',#257);
#217=PLANE('',#258);
#218=ADVANCED_FACE('',(#190),#204,.F.);
#219=ADVANCED_FACE('',(#191),#205,.F.);
#220=ADVANCED_FACE('',(#192),#206,.F.);
#221=ADVANCED_FACE('',(#193),#207,.F.);
#222=ADVANCED_FACE('',(#194),#208,.T.);
#223=ADVANCED_FACE('',(#195),#209,.F.);
#224=ADVANCED_FACE('',(#196),#210,.F.);
#225=ADVANCED_FACE('',(#197),#211,.F.);
#226=ADVANCED_FACE('',(#198),#212,.F.);
#227=ADVANCED_FACE('',(#199),#213,.F.);
#228=ADVANCED_FACE('',(#200),#214,.T.);
#229=ADVANCED_FACE('',(#201),#215,.T.);
#230=ADVANCED_FACE('',(#202),#216,.T.);
#231=ADVANCED_FACE('',(#203),#217,.T.);
#232=CLOSED_SHELL('',(#218,#219,#220,#221,#222,#223,#224,#225,#226,#227,
#228,#229,#230,#231));
#233=STYLED_ITEM('',(#234),#241);
#234=PRESENTATION_STYLE_ASSIGNMENT((#235));
#235=SURFACE_STYLE_USAGE(.BOTH.,#236);
#236=SURFACE_SIDE_STYLE('',(#237));
#237=SURFACE_STYLE_FILL_AREA(#238);
#238=FILL_AREA_STYLE('',(#239));
#239=FILL_AREA_STYLE_COLOUR('',#240);
#240=COLOUR_RGB('',0.645180702209473,0.678915679454803,0.699999988079071);
#241=MANIFOLD_SOLID_BREP('',#232);
#242=SHAPE_DEFINITION_REPRESENTATION(#382,#243);
#243=SHAPE_REPRESENTATION('Part1',(#244),#377);
#244=AXIS2_PLACEMENT_3D('',#317,#259,#260);
#245=AXIS2_PLACEMENT_3D('',#318,#261,#262);
#246=AXIS2_PLACEMENT_3D('',#327,#267,#268);
#247=AXIS2_PLACEMENT_3D('',#333,#272,#273);
#248=AXIS2_PLACEMENT_3D('',#339,#277,#278);
#249=AXIS2_PLACEMENT_3D('',#342,#281,#282);
#250=AXIS2_PLACEMENT_3D('',#351,#287,#288);
#251=AXIS2_PLACEMENT_3D('',#360,#293,#294);
#252=AXIS2_PLACEMENT_3D('',#363,#297,#298);
#253=AXIS2_PLACEMENT_3D('',#365,#300,#301);
#254=AXIS2_PLACEMENT_3D('',#367,#303,#304);
#255=AXIS2_PLACEMENT_3D('',#368,#305,#306);
#256=AXIS2_PLACEMENT_3D('',#371,#309,#310);
#257=AXIS2_PLACEMENT_3D('',#373,#312,#313);
#258=AXIS2_PLACEMENT_3D('',#375,#315,#316);
#259=DIRECTION('',(0.,0.,1.));
#260=DIRECTION('',(1.,0.,0.));
#261=DIRECTION('',(-1.38777878078145E-16,-1.,0.));
#262=DIRECTION('',(1.,-1.38777878078145E-16,0.));
#263=DIRECTION('',(0.,0.,-1.));
#264=DIRECTION('',(-1.,1.38777878078145E-16,0.));
#265=DIRECTION('',(0.,0.,-1.));
#266=DIRECTION('',(1.,-1.38777878078145E-16,0.));
#267=DIRECTION('',(1.,0.,0.));
#268=DIRECTION('',(0.,0.,-1.));
#269=DIRECTION('',(0.,-1.,0.));
#270=DIRECTION('',(0.,0.,-1.));
#271=DIRECTION('',(0.,1.,0.));
#272=DIRECTION('',(-1.38777878078145E-16,1.,0.));
#273=DIRECTION('',(-1.,-1.38777878078145E-16,0.));
#274=DIRECTION('',(1.,1.38777878078145E-16,0.));
#275=DIRECTION('',(0.,0.,-1.));
#276=DIRECTION('',(-1.,-1.38777878078145E-16,0.));
#277=DIRECTION('',(-1.,0.,0.));
#278=DIRECTION('',(0.,0.,1.));
#279=DIRECTION('',(0.,1.,0.));
#280=DIRECTION('',(0.,-1.,0.));
#281=DIRECTION('',(0.,0.,1.));
#282=DIRECTION('',(1.,0.,0.));
#283=DIRECTION('',(-1.,1.38777878078145E-16,0.));
#284=DIRECTION('',(0.,-1.,0.));
#285=DIRECTION('',(1.,1.38777878078145E-16,0.));
#286=DIRECTION('',(0.,1.,0.));
#287=DIRECTION('',(0.,0.,1.));
#288=DIRECTION('',(1.,0.,0.));
#289=DIRECTION('',(-1.,-1.38777878078145E-16,0.));
#290=DIRECTION('',(0.,1.,0.));
#291=DIRECTION('',(1.,-1.38777878078145E-16,0.));
#292=DIRECTION('',(0.,-1.,0.));
#293=DIRECTION('',(-0.707106781186547,0.,0.707106781186547));
#294=DIRECTION('',(0.,1.,0.));
#295=DIRECTION('',(0.577350269189625,-0.577350269189627,0.577350269189625));
#296=DIRECTION('',(0.577350269189625,0.577350269189627,0.577350269189625));
#297=DIRECTION('',(-9.81307786677359E-17,-0.707106781186547,0.707106781186549));
#298=DIRECTION('',(-1.,1.38777878078145E-16,0.));
#299=DIRECTION('',(-0.577350269189625,0.577350269189627,0.577350269189625));
#300=DIRECTION('',(-9.81307786677359E-17,0.707106781186547,0.707106781186549));
#301=DIRECTION('',(1.,1.38777878078145E-16,0.));
#302=DIRECTION('',(0.577350269189625,0.577350269189627,-0.577350269189625));
#303=DIRECTION('',(0.707106781186547,0.,0.707106781186547));
#304=DIRECTION('',(0.,-1.,0.));
#305=DIRECTION('',(0.707106781186547,0.,0.707106781186547));
#306=DIRECTION('',(0.,-1.,0.));
#307=DIRECTION('',(-0.577350269189625,0.577350269189627,0.577350269189625));
#308=DIRECTION('',(-0.577350269189625,-0.577350269189627,0.577350269189625));
#309=DIRECTION('',(9.81307786677359E-17,0.707106781186547,0.707106781186549));
#310=DIRECTION('',(1.,-1.38777878078145E-16,0.));
#311=DIRECTION('',(0.577350269189625,-0.577350269189627,0.577350269189625));
#312=DIRECTION('',(9.81307786677359E-17,-0.707106781186547,0.707106781186549));
#313=DIRECTION('',(-1.,-1.38777878078145E-16,0.));
#314=DIRECTION('',(-0.577350269189625,-0.577350269189627,-0.577350269189625));
#315=DIRECTION('',(-0.707106781186547,0.,0.707106781186547));
#316=DIRECTION('',(0.,1.,0.));
#317=CARTESIAN_POINT('',(0.,0.,0.));
#318=CARTESIAN_POINT('',(300.,150.,80.));
#319=CARTESIAN_POINT('',(300.,150.,80.));
#320=CARTESIAN_POINT('',(300.,150.,75.));
#321=CARTESIAN_POINT('',(300.,150.,5.));
#322=CARTESIAN_POINT('',(300.,150.,5.));
#323=CARTESIAN_POINT('',(-300.,150.,5.));
#324=CARTESIAN_POINT('',(-300.,150.,80.));
#325=CARTESIAN_POINT('',(-300.,150.,75.));
#326=CARTESIAN_POINT('',(300.,150.,75.));
#327=CARTESIAN_POINT('',(-300.,150.,80.));
#328=CARTESIAN_POINT('',(-300.,150.,5.));
#329=CARTESIAN_POINT('',(-300.,-150.,5.));
#330=CARTESIAN_POINT('',(-300.,-150.,80.));
#331=CARTESIAN_POINT('',(-300.,-150.,75.));
#332=CARTESIAN_POINT('',(-300.,150.,75.));
#333=CARTESIAN_POINT('',(-300.,-150.,80.));
#334=CARTESIAN_POINT('',(-300.,-150.,5.));
#335=CARTESIAN_POINT('',(300.,-150.,5.));
#336=CARTESIAN_POINT('',(300.,-150.,80.));
#337=CARTESIAN_POINT('',(300.,-150.,75.));
#338=CARTESIAN_POINT('',(-300.,-150.,75.));
#339=CARTESIAN_POINT('',(300.,-150.,80.));
#340=CARTESIAN_POINT('',(300.,-150.,5.));
#341=CARTESIAN_POINT('',(300.,-150.,75.));
#342=CARTESIAN_POINT('',(0.,0.,80.));
#343=CARTESIAN_POINT('',(-300.,145.,80.));
#344=CARTESIAN_POINT('',(295.,145.,80.));
#345=CARTESIAN_POINT('',(-295.,145.,80.));
#346=CARTESIAN_POINT('',(-295.,-150.,80.));
#347=CARTESIAN_POINT('',(-295.,-145.,80.));
#348=CARTESIAN_POINT('',(300.,-145.,80.));
#349=CARTESIAN_POINT('',(295.,-145.,80.));
#350=CARTESIAN_POINT('',(295.,150.,80.));
#351=CARTESIAN_POINT('',(0.,0.,0.));
#352=CARTESIAN_POINT('',(2.0122792321331E-14,-145.,0.));
#353=CARTESIAN_POINT('',(295.,-145.,0.));
#354=CARTESIAN_POINT('',(-295.,-145.,0.));
#355=CARTESIAN_POINT('',(-295.,0.,0.));
#356=CARTESIAN_POINT('',(-295.,145.,0.));
#357=CARTESIAN_POINT('',(2.0122792321331E-14,145.,0.));
#358=CARTESIAN_POINT('',(295.,145.,0.));
#359=CARTESIAN_POINT('',(295.,0.,0.));
#360=CARTESIAN_POINT('',(300.,-150.,5.));
#361=CARTESIAN_POINT('',(100.,50.0000000000002,-195.));
#362=CARTESIAN_POINT('',(200.,49.9999999999996,-95.));
#363=CARTESIAN_POINT('',(300.,150.,5.));
#364=CARTESIAN_POINT('',(-100.,-50.0000000000001,-195.));
#365=CARTESIAN_POINT('',(-300.,-150.,5.));
#366=CARTESIAN_POINT('',(-300.,-150.,5.));
#367=CARTESIAN_POINT('',(-300.,150.,5.));
#368=CARTESIAN_POINT('',(295.,0.,80.));
#369=CARTESIAN_POINT('',(196.666666666667,-46.6666666666665,178.333333333333));
#370=CARTESIAN_POINT('',(246.666666666667,96.6666666666664,128.333333333333));
#371=CARTESIAN_POINT('',(2.0122792321331E-14,145.,80.));
#372=CARTESIAN_POINT('',(-196.666666666667,46.6666666666666,178.333333333333));
#373=CARTESIAN_POINT('',(2.0122792321331E-14,-145.,80.));
#374=CARTESIAN_POINT('',(-196.666666666667,-46.6666666666666,178.333333333333));
#375=CARTESIAN_POINT('',(-295.,0.,80.));
#376=MECHANICAL_DESIGN_GEOMETRIC_PRESENTATION_REPRESENTATION('',(#233),
#377);
#377=(
GEOMETRIC_REPRESENTATION_CONTEXT(3)
GLOBAL_UNCERTAINTY_ASSIGNED_CONTEXT((#378))
GLOBAL_UNIT_ASSIGNED_CONTEXT((#381,#380,#379))
REPRESENTATION_CONTEXT('Part1','TOP_LEVEL_ASSEMBLY_PART')
);
#378=UNCERTAINTY_MEASURE_WITH_UNIT(LENGTH_MEASURE(0.005),#381,
'DISTANCE_ACCURACY_VALUE','Maximum Tolerance applied to model');
#379=(
NAMED_UNIT(*)
SI_UNIT($,.STERADIAN.)
SOLID_ANGLE_UNIT()
);
#380=(
NAMED_UNIT(*)
PLANE_ANGLE_UNIT()
SI_UNIT($,.RADIAN.)
);
#381=(
LENGTH_UNIT()
NAMED_UNIT(*)
SI_UNIT(.MILLI.,.METRE.)
);
#382=PRODUCT_DEFINITION_SHAPE('','',#383);
#383=PRODUCT_DEFINITION('','',#385,#384);
#384=PRODUCT_DEFINITION_CONTEXT('',#391,'design');
#385=PRODUCT_DEFINITION_FORMATION_WITH_SPECIFIED_SOURCE('','',#387,
 .NOT_KNOWN.);
#386=PRODUCT_RELATED_PRODUCT_CATEGORY('','',(#387));
#387=PRODUCT('Part1','Part1','Part1',(#389));
#388=PRODUCT_CATEGORY('','');
#389=PRODUCT_CONTEXT('',#391,'mechanical');
#390=APPLICATION_PROTOCOL_DEFINITION('international standard',
'automotive_design',2010,#391);
#391=APPLICATION_CONTEXT(
'core data for automotive mechanical design processes');
ENDSEC;
END-ISO-10303-21;
