ISO-10303-21;
HEADER;
/* Generated by software containing ST-Developer
 * from STEP Tools, Inc. (www.steptools.com) 
 */
/* OPTION: strings as raw bytes, not using required /X/ escapes */

FILE_DESCRIPTION(
/* description */ ('Unknown'),
/* implementation_level */ '2;1');

FILE_NAME(
/* name */ 'SNP 7184 LED 24V',
/* time_stamp */ '2018-09-24T14:25:51+02:00',
/* author */ ('Unknown'),
/* organization */ ('Unknown'),
/* preprocessor_version */ 'ST-DEVELOPER v16.7',
/* originating_system */ 'DEX',
/* authorisation */ $);

FILE_SCHEMA (('AUTOMOTIVE_DESIGN {1 0 10303 214 3 1 1}'));
ENDSEC;

DATA;
#10=PROPERTY_DEFINITION_REPRESENTATION(#14,#12);
#11=PROPERTY_DEFINITION_REPRESENTATION(#15,#13);
#12=REPRESENTATION('',(#16),#423);
#13=REPRESENTATION('',(#17),#423);
#14=PROPERTY_DEFINITION('pmi validation property','',#428);
#15=PROPERTY_DEFINITION('pmi validation property','',#428);
#16=VALUE_REPRESENTATION_ITEM('number of annotations',COUNT_MEASURE(0.));
#17=VALUE_REPRESENTATION_ITEM('number of views',COUNT_MEASURE(0.));
#18=SHAPE_REPRESENTATION_RELATIONSHIP('','',#273,#19);
#19=ADVANCED_BREP_SHAPE_REPRESENTATION('',(#271),#423);
#20=ORIENTED_EDGE('',*,*,#84,.T.);
#21=ORIENTED_EDGE('',*,*,#85,.T.);
#22=ORIENTED_EDGE('',*,*,#86,.F.);
#23=ORIENTED_EDGE('',*,*,#87,.T.);
#24=ORIENTED_EDGE('',*,*,#88,.T.);
#25=ORIENTED_EDGE('',*,*,#89,.T.);
#26=ORIENTED_EDGE('',*,*,#84,.F.);
#27=ORIENTED_EDGE('',*,*,#90,.T.);
#28=ORIENTED_EDGE('',*,*,#91,.T.);
#29=ORIENTED_EDGE('',*,*,#92,.T.);
#30=ORIENTED_EDGE('',*,*,#88,.F.);
#31=ORIENTED_EDGE('',*,*,#93,.T.);
#32=ORIENTED_EDGE('',*,*,#94,.F.);
#33=ORIENTED_EDGE('',*,*,#95,.F.);
#34=ORIENTED_EDGE('',*,*,#96,.F.);
#35=ORIENTED_EDGE('',*,*,#97,.F.);
#36=ORIENTED_EDGE('',*,*,#86,.T.);
#37=ORIENTED_EDGE('',*,*,#98,.T.);
#38=ORIENTED_EDGE('',*,*,#91,.F.);
#39=ORIENTED_EDGE('',*,*,#99,.T.);
#40=ORIENTED_EDGE('',*,*,#87,.F.);
#41=ORIENTED_EDGE('',*,*,#99,.F.);
#42=ORIENTED_EDGE('',*,*,#93,.F.);
#43=ORIENTED_EDGE('',*,*,#90,.F.);
#44=ORIENTED_EDGE('',*,*,#100,.T.);
#45=ORIENTED_EDGE('',*,*,#101,.T.);
#46=ORIENTED_EDGE('',*,*,#102,.T.);
#47=ORIENTED_EDGE('',*,*,#103,.T.);
#48=ORIENTED_EDGE('',*,*,#104,.F.);
#49=ORIENTED_EDGE('',*,*,#92,.F.);
#50=ORIENTED_EDGE('',*,*,#105,.F.);
#51=ORIENTED_EDGE('',*,*,#103,.F.);
#52=ORIENTED_EDGE('',*,*,#105,.T.);
#53=ORIENTED_EDGE('',*,*,#98,.F.);
#54=ORIENTED_EDGE('',*,*,#106,.F.);
#55=ORIENTED_EDGE('',*,*,#100,.F.);
#56=ORIENTED_EDGE('',*,*,#104,.T.);
#57=ORIENTED_EDGE('',*,*,#102,.F.);
#58=ORIENTED_EDGE('',*,*,#107,.F.);
#59=ORIENTED_EDGE('',*,*,#89,.F.);
#60=ORIENTED_EDGE('',*,*,#106,.T.);
#61=ORIENTED_EDGE('',*,*,#85,.F.);
#62=ORIENTED_EDGE('',*,*,#107,.T.);
#63=ORIENTED_EDGE('',*,*,#101,.F.);
#64=ORIENTED_EDGE('',*,*,#94,.T.);
#65=ORIENTED_EDGE('',*,*,#108,.F.);
#66=ORIENTED_EDGE('',*,*,#109,.F.);
#67=ORIENTED_EDGE('',*,*,#110,.T.);
#68=ORIENTED_EDGE('',*,*,#97,.T.);
#69=ORIENTED_EDGE('',*,*,#111,.F.);
#70=ORIENTED_EDGE('',*,*,#112,.F.);
#71=ORIENTED_EDGE('',*,*,#108,.T.);
#72=ORIENTED_EDGE('',*,*,#96,.T.);
#73=ORIENTED_EDGE('',*,*,#113,.F.);
#74=ORIENTED_EDGE('',*,*,#114,.F.);
#75=ORIENTED_EDGE('',*,*,#111,.T.);
#76=ORIENTED_EDGE('',*,*,#95,.T.);
#77=ORIENTED_EDGE('',*,*,#110,.F.);
#78=ORIENTED_EDGE('',*,*,#115,.F.);
#79=ORIENTED_EDGE('',*,*,#113,.T.);
#80=ORIENTED_EDGE('',*,*,#109,.T.);
#81=ORIENTED_EDGE('',*,*,#112,.T.);
#82=ORIENTED_EDGE('',*,*,#114,.T.);
#83=ORIENTED_EDGE('',*,*,#115,.T.);
#84=EDGE_CURVE('',#116,#117,#136,.T.);
#85=EDGE_CURVE('',#117,#118,#137,.T.);
#86=EDGE_CURVE('',#119,#118,#138,.T.);
#87=EDGE_CURVE('',#119,#116,#139,.T.);
#88=EDGE_CURVE('',#120,#121,#140,.T.);
#89=EDGE_CURVE('',#121,#117,#141,.T.);
#90=EDGE_CURVE('',#116,#120,#142,.T.);
#91=EDGE_CURVE('',#122,#123,#143,.T.);
#92=EDGE_CURVE('',#123,#121,#144,.T.);
#93=EDGE_CURVE('',#120,#122,#145,.T.);
#94=EDGE_CURVE('',#124,#125,#146,.T.);
#95=EDGE_CURVE('',#126,#124,#147,.T.);
#96=EDGE_CURVE('',#127,#126,#148,.T.);
#97=EDGE_CURVE('',#125,#127,#149,.T.);
#98=EDGE_CURVE('',#118,#123,#150,.T.);
#99=EDGE_CURVE('',#122,#119,#151,.T.);
#100=EDGE_CURVE('',#128,#129,#152,.T.);
#101=EDGE_CURVE('',#129,#130,#153,.T.);
#102=EDGE_CURVE('',#130,#131,#154,.T.);
#103=EDGE_CURVE('',#131,#128,#155,.T.);
#104=EDGE_CURVE('',#121,#131,#156,.T.);
#105=EDGE_CURVE('',#128,#123,#157,.F.);
#106=EDGE_CURVE('',#129,#118,#158,.F.);
#107=EDGE_CURVE('',#117,#130,#159,.F.);
#108=EDGE_CURVE('',#132,#125,#160,.T.);
#109=EDGE_CURVE('',#133,#132,#161,.T.);
#110=EDGE_CURVE('',#133,#124,#162,.T.);
#111=EDGE_CURVE('',#134,#127,#163,.T.);
#112=EDGE_CURVE('',#132,#134,#164,.T.);
#113=EDGE_CURVE('',#135,#126,#165,.T.);
#114=EDGE_CURVE('',#134,#135,#166,.T.);
#115=EDGE_CURVE('',#135,#133,#167,.T.);
#116=VERTEX_POINT('',#357);
#117=VERTEX_POINT('',#358);
#118=VERTEX_POINT('',#360);
#119=VERTEX_POINT('',#362);
#120=VERTEX_POINT('',#366);
#121=VERTEX_POINT('',#367);
#122=VERTEX_POINT('',#372);
#123=VERTEX_POINT('',#373);
#124=VERTEX_POINT('',#378);
#125=VERTEX_POINT('',#379);
#126=VERTEX_POINT('',#381);
#127=VERTEX_POINT('',#383);
#128=VERTEX_POINT('',#390);
#129=VERTEX_POINT('',#391);
#130=VERTEX_POINT('',#393);
#131=VERTEX_POINT('',#395);
#132=VERTEX_POINT('',#407);
#133=VERTEX_POINT('',#409);
#134=VERTEX_POINT('',#413);
#135=VERTEX_POINT('',#417);
#136=LINE('',#356,#168);
#137=LINE('',#359,#169);
#138=LINE('',#361,#170);
#139=LINE('',#363,#171);
#140=LINE('',#365,#172);
#141=LINE('',#368,#173);
#142=LINE('',#369,#174);
#143=LINE('',#371,#175);
#144=LINE('',#374,#176);
#145=LINE('',#375,#177);
#146=LINE('',#377,#178);
#147=LINE('',#380,#179);
#148=LINE('',#382,#180);
#149=LINE('',#384,#181);
#150=LINE('',#385,#182);
#151=LINE('',#386,#183);
#152=LINE('',#389,#184);
#153=LINE('',#392,#185);
#154=LINE('',#394,#186);
#155=LINE('',#396,#187);
#156=LINE('',#398,#188);
#157=LINE('',#399,#189);
#158=LINE('',#401,#190);
#159=LINE('',#403,#191);
#160=LINE('',#406,#192);
#161=LINE('',#408,#193);
#162=LINE('',#410,#194);
#163=LINE('',#412,#195);
#164=LINE('',#414,#196);
#165=LINE('',#416,#197);
#166=LINE('',#418,#198);
#167=LINE('',#420,#199);
#168=VECTOR('',#294,1000.);
#169=VECTOR('',#295,1000.);
#170=VECTOR('',#296,1000.);
#171=VECTOR('',#297,1000.);
#172=VECTOR('',#300,1000.);
#173=VECTOR('',#301,1000.);
#174=VECTOR('',#302,1000.);
#175=VECTOR('',#305,1000.);
#176=VECTOR('',#306,1000.);
#177=VECTOR('',#307,1000.);
#178=VECTOR('',#310,1000.);
#179=VECTOR('',#311,1000.);
#180=VECTOR('',#312,1000.);
#181=VECTOR('',#313,1000.);
#182=VECTOR('',#314,1000.);
#183=VECTOR('',#315,1000.);
#184=VECTOR('',#320,1000.);
#185=VECTOR('',#321,1000.);
#186=VECTOR('',#322,1000.);
#187=VECTOR('',#323,1000.);
#188=VECTOR('',#326,1000.);
#189=VECTOR('',#327,1000.);
#190=VECTOR('',#330,1000.);
#191=VECTOR('',#333,1000.);
#192=VECTOR('',#338,1000.);
#193=VECTOR('',#339,1000.);
#194=VECTOR('',#340,1000.);
#195=VECTOR('',#343,1000.);
#196=VECTOR('',#344,1000.);
#197=VECTOR('',#347,1000.);
#198=VECTOR('',#348,1000.);
#199=VECTOR('',#351,1000.);
#200=EDGE_LOOP('',(#20,#21,#22,#23));
#201=EDGE_LOOP('',(#24,#25,#26,#27));
#202=EDGE_LOOP('',(#28,#29,#30,#31));
#203=EDGE_LOOP('',(#32,#33,#34,#35));
#204=EDGE_LOOP('',(#36,#37,#38,#39));
#205=EDGE_LOOP('',(#40,#41,#42,#43));
#206=EDGE_LOOP('',(#44,#45,#46,#47));
#207=EDGE_LOOP('',(#48,#49,#50,#51));
#208=EDGE_LOOP('',(#52,#53,#54,#55));
#209=EDGE_LOOP('',(#56,#57,#58,#59));
#210=EDGE_LOOP('',(#60,#61,#62,#63));
#211=EDGE_LOOP('',(#64,#65,#66,#67));
#212=EDGE_LOOP('',(#68,#69,#70,#71));
#213=EDGE_LOOP('',(#72,#73,#74,#75));
#214=EDGE_LOOP('',(#76,#77,#78,#79));
#215=EDGE_LOOP('',(#80,#81,#82,#83));
#216=FACE_BOUND('',#200,.T.);
#217=FACE_BOUND('',#201,.T.);
#218=FACE_BOUND('',#202,.T.);
#219=FACE_BOUND('',#203,.T.);
#220=FACE_BOUND('',#204,.T.);
#221=FACE_BOUND('',#205,.T.);
#222=FACE_BOUND('',#206,.T.);
#223=FACE_BOUND('',#207,.T.);
#224=FACE_BOUND('',#208,.T.);
#225=FACE_BOUND('',#209,.T.);
#226=FACE_BOUND('',#210,.T.);
#227=FACE_BOUND('',#211,.T.);
#228=FACE_BOUND('',#212,.T.);
#229=FACE_BOUND('',#213,.T.);
#230=FACE_BOUND('',#214,.T.);
#231=FACE_BOUND('',#215,.T.);
#232=PLANE('',#275);
#233=PLANE('',#276);
#234=PLANE('',#277);
#235=PLANE('',#278);
#236=PLANE('',#279);
#237=PLANE('',#280);
#238=PLANE('',#281);
#239=PLANE('',#282);
#240=PLANE('',#283);
#241=PLANE('',#284);
#242=PLANE('',#285);
#243=PLANE('',#286);
#244=PLANE('',#287);
#245=PLANE('',#288);
#246=PLANE('',#289);
#247=ADVANCED_FACE('',(#216),#232,.T.);
#248=ADVANCED_FACE('',(#217),#233,.T.);
#249=ADVANCED_FACE('',(#218),#234,.T.);
#250=ADVANCED_FACE('',(#219,#220),#235,.T.);
#251=ADVANCED_FACE('',(#221),#236,.F.);
#252=ADVANCED_FACE('',(#222),#237,.T.);
#253=ADVANCED_FACE('',(#223),#238,.F.);
#254=ADVANCED_FACE('',(#224),#239,.F.);
#255=ADVANCED_FACE('',(#225),#240,.F.);
#256=ADVANCED_FACE('',(#226),#241,.F.);
#257=ADVANCED_FACE('',(#227),#242,.F.);
#258=ADVANCED_FACE('',(#228),#243,.F.);
#259=ADVANCED_FACE('',(#229),#244,.F.);
#260=ADVANCED_FACE('',(#230),#245,.F.);
#261=ADVANCED_FACE('',(#231),#246,.T.);
#262=CLOSED_SHELL('',(#247,#248,#249,#250,#251,#252,#253,#254,#255,#256,
#257,#258,#259,#260,#261));
#263=STYLED_ITEM('',(#264),#271);
#264=PRESENTATION_STYLE_ASSIGNMENT((#265));
#265=SURFACE_STYLE_USAGE(.BOTH.,#266);
#266=SURFACE_SIDE_STYLE('',(#267));
#267=SURFACE_STYLE_FILL_AREA(#268);
#268=FILL_AREA_STYLE('',(#269));
#269=FILL_AREA_STYLE_COLOUR('',#270);
#270=COLOUR_RGB('',0.645180702209473,0.678915679454803,0.699999988079071);
#271=MANIFOLD_SOLID_BREP('',#262);
#272=SHAPE_DEFINITION_REPRESENTATION(#428,#273);
#273=SHAPE_REPRESENTATION('SNP 7184 LED 24V',(#274),#423);
#274=AXIS2_PLACEMENT_3D('',#354,#290,#291);
#275=AXIS2_PLACEMENT_3D('',#355,#292,#293);
#276=AXIS2_PLACEMENT_3D('',#364,#298,#299);
#277=AXIS2_PLACEMENT_3D('',#370,#303,#304);
#278=AXIS2_PLACEMENT_3D('',#376,#308,#309);
#279=AXIS2_PLACEMENT_3D('',#387,#316,#317);
#280=AXIS2_PLACEMENT_3D('',#388,#318,#319);
#281=AXIS2_PLACEMENT_3D('',#397,#324,#325);
#282=AXIS2_PLACEMENT_3D('',#400,#328,#329);
#283=AXIS2_PLACEMENT_3D('',#402,#331,#332);
#284=AXIS2_PLACEMENT_3D('',#404,#334,#335);
#285=AXIS2_PLACEMENT_3D('',#405,#336,#337);
#286=AXIS2_PLACEMENT_3D('',#411,#341,#342);
#287=AXIS2_PLACEMENT_3D('',#415,#345,#346);
#288=AXIS2_PLACEMENT_3D('',#419,#349,#350);
#289=AXIS2_PLACEMENT_3D('',#421,#352,#353);
#290=DIRECTION('',(0.,0.,1.));
#291=DIRECTION('',(1.,0.,0.));
#292=DIRECTION('',(1.,0.,0.));
#293=DIRECTION('',(0.,0.,-1.));
#294=DIRECTION('',(0.,-1.,0.));
#295=DIRECTION('',(0.,0.,-1.));
#296=DIRECTION('',(0.,-1.,0.));
#297=DIRECTION('',(0.,0.,1.));
#298=DIRECTION('',(0.,0.,1.));
#299=DIRECTION('',(1.,0.,0.));
#300=DIRECTION('',(0.,-1.,0.));
#301=DIRECTION('',(1.,0.,0.));
#302=DIRECTION('',(-1.,0.,0.));
#303=DIRECTION('',(-1.,0.,0.));
#304=DIRECTION('',(0.,0.,1.));
#305=DIRECTION('',(0.,-1.,0.));
#306=DIRECTION('',(0.,0.,1.));
#307=DIRECTION('',(0.,0.,-1.));
#308=DIRECTION('',(0.,0.,-1.));
#309=DIRECTION('',(-1.,0.,0.));
#310=DIRECTION('',(0.,1.,0.));
#311=DIRECTION('',(-1.,1.26930986047083E-16,0.));
#312=DIRECTION('',(0.,-1.,0.));
#313=DIRECTION('',(1.,0.,0.));
#314=DIRECTION('',(-1.,0.,0.));
#315=DIRECTION('',(1.,0.,0.));
#316=DIRECTION('',(0.,-1.,0.));
#317=DIRECTION('',(0.,0.,-1.));
#318=DIRECTION('',(0.,-1.,0.));
#319=DIRECTION('',(0.,0.,-1.));
#320=DIRECTION('',(1.,0.,0.));
#321=DIRECTION('',(0.,0.,1.));
#322=DIRECTION('',(-1.,0.,0.));
#323=DIRECTION('',(0.,0.,-1.));
#324=DIRECTION('',(0.707106781186547,0.707106781186547,0.));
#325=DIRECTION('',(0.,0.,-1.));
#326=DIRECTION('',(0.577350269189626,-0.577350269189626,-0.577350269189625));
#327=DIRECTION('',(0.577350269189626,-0.577350269189626,0.577350269189625));
#328=DIRECTION('',(0.,0.707106781186547,0.707106781186548));
#329=DIRECTION('',(1.,0.,0.));
#330=DIRECTION('',(-0.577350269189626,-0.577350269189626,0.577350269189625));
#331=DIRECTION('',(0.,0.707106781186547,-0.707106781186548));
#332=DIRECTION('',(-1.,0.,0.));
#333=DIRECTION('',(0.577350269189626,0.577350269189626,0.577350269189625));
#334=DIRECTION('',(-0.707106781186547,0.707106781186547,0.));
#335=DIRECTION('',(0.,0.,1.));
#336=DIRECTION('',(-1.,0.,0.));
#337=DIRECTION('',(0.,0.,1.));
#338=DIRECTION('',(0.,0.,-1.));
#339=DIRECTION('',(0.,1.,0.));
#340=DIRECTION('',(0.,0.,-1.));
#341=DIRECTION('',(0.,1.,0.));
#342=DIRECTION('',(0.,0.,1.));
#343=DIRECTION('',(0.,0.,-1.));
#344=DIRECTION('',(1.,0.,0.));
#345=DIRECTION('',(1.,0.,0.));
#346=DIRECTION('',(0.,0.,-1.));
#347=DIRECTION('',(0.,0.,-1.));
#348=DIRECTION('',(0.,-1.,0.));
#349=DIRECTION('',(-1.26930986047083E-16,-1.,0.));
#350=DIRECTION('',(1.,-1.26930986047083E-16,0.));
#351=DIRECTION('',(-1.,1.26930986047083E-16,0.));
#352=DIRECTION('',(0.,0.,-1.));
#353=DIRECTION('',(-1.,0.,0.));
#354=CARTESIAN_POINT('',(0.,0.,0.));
#355=CARTESIAN_POINT('',(112.5,80.,-40.));
#356=CARTESIAN_POINT('',(112.5,80.,40.));
#357=CARTESIAN_POINT('',(112.5,80.,40.));
#358=CARTESIAN_POINT('',(112.5,5.,40.));
#359=CARTESIAN_POINT('',(112.5,5.,-40.));
#360=CARTESIAN_POINT('',(112.5,5.,-40.));
#361=CARTESIAN_POINT('',(112.5,80.,-40.));
#362=CARTESIAN_POINT('',(112.5,80.,-40.));
#363=CARTESIAN_POINT('',(112.5,80.,-40.));
#364=CARTESIAN_POINT('',(112.5,80.,40.));
#365=CARTESIAN_POINT('',(-112.5,80.,40.));
#366=CARTESIAN_POINT('',(-112.5,80.,40.));
#367=CARTESIAN_POINT('',(-112.5,5.,40.));
#368=CARTESIAN_POINT('',(112.5,5.,40.));
#369=CARTESIAN_POINT('',(112.5,80.,40.));
#370=CARTESIAN_POINT('',(-112.5,80.,40.));
#371=CARTESIAN_POINT('',(-112.5,80.,-40.));
#372=CARTESIAN_POINT('',(-112.5,80.,-40.));
#373=CARTESIAN_POINT('',(-112.5,5.,-40.));
#374=CARTESIAN_POINT('',(-112.5,5.,40.));
#375=CARTESIAN_POINT('',(-112.5,80.,40.));
#376=CARTESIAN_POINT('',(-112.5,80.,-40.));
#377=CARTESIAN_POINT('',(-82.,19.65,-40.));
#378=CARTESIAN_POINT('',(-82.,19.65,-40.));
#379=CARTESIAN_POINT('',(-82.,34.65,-40.));
#380=CARTESIAN_POINT('',(82.,19.65,-40.));
#381=CARTESIAN_POINT('',(82.,19.65,-40.));
#382=CARTESIAN_POINT('',(82.,34.65,-40.));
#383=CARTESIAN_POINT('',(82.,34.65,-40.));
#384=CARTESIAN_POINT('',(-82.,34.65,-40.));
#385=CARTESIAN_POINT('',(-112.5,5.,-40.));
#386=CARTESIAN_POINT('',(-112.5,80.,-40.));
#387=CARTESIAN_POINT('',(0.,80.,0.));
#388=CARTESIAN_POINT('',(0.,0.,0.));
#389=CARTESIAN_POINT('',(0.,0.,-35.));
#390=CARTESIAN_POINT('',(-107.5,0.,-35.));
#391=CARTESIAN_POINT('',(107.5,0.,-35.));
#392=CARTESIAN_POINT('',(107.5,0.,0.));
#393=CARTESIAN_POINT('',(107.5,0.,35.));
#394=CARTESIAN_POINT('',(0.,0.,35.));
#395=CARTESIAN_POINT('',(-107.5,0.,35.));
#396=CARTESIAN_POINT('',(-107.5,0.,0.));
#397=CARTESIAN_POINT('',(-107.5,0.,0.));
#398=CARTESIAN_POINT('',(-71.6666666666666,-35.8333333333334,-0.833333333333311));
#399=CARTESIAN_POINT('',(-95.8333333333333,-11.6666666666667,-23.3333333333334));
#400=CARTESIAN_POINT('',(0.,0.,-35.));
#401=CARTESIAN_POINT('',(71.6666666666666,-35.8333333333334,0.833333333333311));
#402=CARTESIAN_POINT('',(0.,0.,35.));
#403=CARTESIAN_POINT('',(71.6666666666666,-35.8333333333334,-0.833333333333311));
#404=CARTESIAN_POINT('',(107.5,0.,0.));
#405=CARTESIAN_POINT('',(-82.,19.65,-38.));
#406=CARTESIAN_POINT('',(-82.,34.65,-38.));
#407=CARTESIAN_POINT('',(-82.,34.65,-38.));
#408=CARTESIAN_POINT('',(-82.,19.65,-38.));
#409=CARTESIAN_POINT('',(-82.,19.65,-38.));
#410=CARTESIAN_POINT('',(-82.,19.65,-38.));
#411=CARTESIAN_POINT('',(-82.,34.65,-38.));
#412=CARTESIAN_POINT('',(82.,34.65,-38.));
#413=CARTESIAN_POINT('',(82.,34.65,-38.));
#414=CARTESIAN_POINT('',(-82.,34.65,-38.));
#415=CARTESIAN_POINT('',(82.,34.65,-38.));
#416=CARTESIAN_POINT('',(82.,19.65,-38.));
#417=CARTESIAN_POINT('',(82.,19.65,-38.));
#418=CARTESIAN_POINT('',(82.,34.65,-38.));
#419=CARTESIAN_POINT('',(82.,19.65,-38.));
#420=CARTESIAN_POINT('',(82.,19.65,-38.));
#421=CARTESIAN_POINT('',(0.,0.,-38.));
#422=MECHANICAL_DESIGN_GEOMETRIC_PRESENTATION_REPRESENTATION('',(#263),
#423);
#423=(
GEOMETRIC_REPRESENTATION_CONTEXT(3)
GLOBAL_UNCERTAINTY_ASSIGNED_CONTEXT((#424))
GLOBAL_UNIT_ASSIGNED_CONTEXT((#427,#426,#425))
REPRESENTATION_CONTEXT('SNP 7184 LED 24V','TOP_LEVEL_ASSEMBLY_PART')
);
#424=UNCERTAINTY_MEASURE_WITH_UNIT(LENGTH_MEASURE(0.005),#427,
'DISTANCE_ACCURACY_VALUE','Maximum Tolerance applied to model');
#425=(
NAMED_UNIT(*)
SI_UNIT($,.STERADIAN.)
SOLID_ANGLE_UNIT()
);
#426=(
NAMED_UNIT(*)
PLANE_ANGLE_UNIT()
SI_UNIT($,.RADIAN.)
);
#427=(
LENGTH_UNIT()
NAMED_UNIT(*)
SI_UNIT(.MILLI.,.METRE.)
);
#428=PRODUCT_DEFINITION_SHAPE('','',#429);
#429=PRODUCT_DEFINITION('','',#431,#430);
#430=PRODUCT_DEFINITION_CONTEXT('',#437,'design');
#431=PRODUCT_DEFINITION_FORMATION_WITH_SPECIFIED_SOURCE('','',#433,
 .NOT_KNOWN.);
#432=PRODUCT_RELATED_PRODUCT_CATEGORY('','',(#433));
#433=PRODUCT('SNP 7184 LED 24V','SNP 7184 LED 24V','SNP 7184 LED 24V',(#435));
#434=PRODUCT_CATEGORY('','');
#435=PRODUCT_CONTEXT('',#437,'mechanical');
#436=APPLICATION_PROTOCOL_DEFINITION('international standard',
'automotive_design',2010,#437);
#437=APPLICATION_CONTEXT(
'core data for automotive mechanical design processes');
ENDSEC;
END-ISO-10303-21;
