ISO-10303-21;
HEADER;
/* Generated by software containing ST-Developer
 * from STEP Tools, Inc. (www.steptools.com) 
 */
/* OPTION: strings as raw bytes, not using required /X/ escapes */

FILE_DESCRIPTION(
/* description */ ('Unknown'),
/* implementation_level */ '2;1');

FILE_NAME(
/* name */ 'SNP 7286 P LED 230V',
/* time_stamp */ '2018-06-19T11:12:10+02:00',
/* author */ ('Unknown'),
/* organization */ ('Unknown'),
/* preprocessor_version */ 'ST-DEVELOPER v16.7',
/* originating_system */ 'DEX',
/* authorisation */ $);

FILE_SCHEMA (('AUTOMOTIVE_DESIGN {1 0 10303 214 3 1 1}'));
ENDSEC;

DATA;
#10=PROPERTY_DEFINITION_REPRESENTATION(#14,#12);
#11=PROPERTY_DEFINITION_REPRESENTATION(#15,#13);
#12=REPRESENTATION('',(#16),#457);
#13=REPRESENTATION('',(#17),#457);
#14=PROPERTY_DEFINITION('pmi validation property','',#462);
#15=PROPERTY_DEFINITION('pmi validation property','',#462);
#16=VALUE_REPRESENTATION_ITEM('number of annotations',COUNT_MEASURE(0.));
#17=VALUE_REPRESENTATION_ITEM('number of views',COUNT_MEASURE(0.));
#18=SHAPE_REPRESENTATION_RELATIONSHIP('','',#287,#19);
#19=ADVANCED_BREP_SHAPE_REPRESENTATION('',(#285),#457);
#20=CONICAL_SURFACE('',#306,25.,0.0872664625997165);
#21=CYLINDRICAL_SURFACE('',#304,7.5);
#22=CIRCLE('',#291,7.5);
#23=CIRCLE('',#305,7.5);
#24=CIRCLE('',#307,25.);
#25=CIRCLE('',#308,19.3132368708149);
#26=ORIENTED_EDGE('',*,*,#90,.F.);
#27=ORIENTED_EDGE('',*,*,#91,.T.);
#28=ORIENTED_EDGE('',*,*,#92,.T.);
#29=ORIENTED_EDGE('',*,*,#93,.T.);
#30=ORIENTED_EDGE('',*,*,#94,.F.);
#31=ORIENTED_EDGE('',*,*,#92,.F.);
#32=ORIENTED_EDGE('',*,*,#95,.T.);
#33=ORIENTED_EDGE('',*,*,#96,.T.);
#34=ORIENTED_EDGE('',*,*,#97,.T.);
#35=ORIENTED_EDGE('',*,*,#96,.F.);
#36=ORIENTED_EDGE('',*,*,#98,.T.);
#37=ORIENTED_EDGE('',*,*,#99,.T.);
#38=ORIENTED_EDGE('',*,*,#100,.T.);
#39=ORIENTED_EDGE('',*,*,#99,.F.);
#40=ORIENTED_EDGE('',*,*,#101,.T.);
#41=ORIENTED_EDGE('',*,*,#90,.T.);
#42=ORIENTED_EDGE('',*,*,#102,.T.);
#43=ORIENTED_EDGE('',*,*,#103,.T.);
#44=ORIENTED_EDGE('',*,*,#104,.T.);
#45=ORIENTED_EDGE('',*,*,#105,.T.);
#46=ORIENTED_EDGE('',*,*,#106,.T.);
#47=ORIENTED_EDGE('',*,*,#107,.T.);
#48=ORIENTED_EDGE('',*,*,#108,.T.);
#49=ORIENTED_EDGE('',*,*,#109,.T.);
#50=ORIENTED_EDGE('',*,*,#110,.T.);
#51=ORIENTED_EDGE('',*,*,#111,.F.);
#52=ORIENTED_EDGE('',*,*,#106,.F.);
#53=ORIENTED_EDGE('',*,*,#112,.F.);
#54=ORIENTED_EDGE('',*,*,#98,.F.);
#55=ORIENTED_EDGE('',*,*,#112,.T.);
#56=ORIENTED_EDGE('',*,*,#105,.F.);
#57=ORIENTED_EDGE('',*,*,#113,.F.);
#58=ORIENTED_EDGE('',*,*,#101,.F.);
#59=ORIENTED_EDGE('',*,*,#111,.T.);
#60=ORIENTED_EDGE('',*,*,#95,.F.);
#61=ORIENTED_EDGE('',*,*,#114,.F.);
#62=ORIENTED_EDGE('',*,*,#103,.F.);
#63=ORIENTED_EDGE('',*,*,#113,.T.);
#64=ORIENTED_EDGE('',*,*,#104,.F.);
#65=ORIENTED_EDGE('',*,*,#114,.T.);
#66=ORIENTED_EDGE('',*,*,#91,.F.);
#67=ORIENTED_EDGE('',*,*,#115,.F.);
#68=ORIENTED_EDGE('',*,*,#100,.F.);
#69=ORIENTED_EDGE('',*,*,#116,.F.);
#70=ORIENTED_EDGE('',*,*,#110,.F.);
#71=ORIENTED_EDGE('',*,*,#116,.T.);
#72=ORIENTED_EDGE('',*,*,#102,.F.);
#73=ORIENTED_EDGE('',*,*,#117,.F.);
#74=ORIENTED_EDGE('',*,*,#107,.F.);
#75=ORIENTED_EDGE('',*,*,#115,.T.);
#76=ORIENTED_EDGE('',*,*,#109,.F.);
#77=ORIENTED_EDGE('',*,*,#118,.F.);
#78=ORIENTED_EDGE('',*,*,#97,.F.);
#79=ORIENTED_EDGE('',*,*,#117,.T.);
#80=ORIENTED_EDGE('',*,*,#93,.F.);
#81=ORIENTED_EDGE('',*,*,#118,.T.);
#82=ORIENTED_EDGE('',*,*,#108,.F.);
#83=ORIENTED_EDGE('',*,*,#119,.T.);
#84=ORIENTED_EDGE('',*,*,#94,.T.);
#85=ORIENTED_EDGE('',*,*,#120,.T.);
#86=ORIENTED_EDGE('',*,*,#121,.F.);
#87=ORIENTED_EDGE('',*,*,#120,.F.);
#88=ORIENTED_EDGE('',*,*,#119,.F.);
#89=ORIENTED_EDGE('',*,*,#121,.T.);
#90=EDGE_CURVE('',#122,#123,#142,.T.);
#91=EDGE_CURVE('',#122,#124,#143,.T.);
#92=EDGE_CURVE('',#124,#125,#144,.T.);
#93=EDGE_CURVE('',#125,#123,#145,.T.);
#94=EDGE_CURVE('',#126,#126,#22,.T.);
#95=EDGE_CURVE('',#124,#127,#146,.T.);
#96=EDGE_CURVE('',#127,#128,#147,.T.);
#97=EDGE_CURVE('',#128,#125,#148,.T.);
#98=EDGE_CURVE('',#127,#129,#149,.T.);
#99=EDGE_CURVE('',#129,#130,#150,.T.);
#100=EDGE_CURVE('',#130,#128,#151,.T.);
#101=EDGE_CURVE('',#129,#122,#152,.T.);
#102=EDGE_CURVE('',#123,#130,#153,.T.);
#103=EDGE_CURVE('',#131,#132,#154,.T.);
#104=EDGE_CURVE('',#132,#133,#155,.T.);
#105=EDGE_CURVE('',#133,#134,#156,.T.);
#106=EDGE_CURVE('',#134,#131,#157,.T.);
#107=EDGE_CURVE('',#135,#136,#158,.T.);
#108=EDGE_CURVE('',#136,#137,#159,.T.);
#109=EDGE_CURVE('',#137,#138,#160,.T.);
#110=EDGE_CURVE('',#138,#135,#161,.T.);
#111=EDGE_CURVE('',#131,#127,#162,.T.);
#112=EDGE_CURVE('',#129,#134,#163,.F.);
#113=EDGE_CURVE('',#122,#133,#164,.F.);
#114=EDGE_CURVE('',#132,#124,#165,.F.);
#115=EDGE_CURVE('',#128,#138,#166,.T.);
#116=EDGE_CURVE('',#135,#130,#167,.F.);
#117=EDGE_CURVE('',#136,#123,#168,.F.);
#118=EDGE_CURVE('',#125,#137,#169,.F.);
#119=EDGE_CURVE('',#139,#139,#23,.T.);
#120=EDGE_CURVE('',#140,#140,#24,.T.);
#121=EDGE_CURVE('',#141,#141,#25,.T.);
#122=VERTEX_POINT('',#388);
#123=VERTEX_POINT('',#389);
#124=VERTEX_POINT('',#391);
#125=VERTEX_POINT('',#393);
#126=VERTEX_POINT('',#397);
#127=VERTEX_POINT('',#399);
#128=VERTEX_POINT('',#401);
#129=VERTEX_POINT('',#405);
#130=VERTEX_POINT('',#407);
#131=VERTEX_POINT('',#414);
#132=VERTEX_POINT('',#415);
#133=VERTEX_POINT('',#417);
#134=VERTEX_POINT('',#419);
#135=VERTEX_POINT('',#423);
#136=VERTEX_POINT('',#424);
#137=VERTEX_POINT('',#426);
#138=VERTEX_POINT('',#428);
#139=VERTEX_POINT('',#448);
#140=VERTEX_POINT('',#451);
#141=VERTEX_POINT('',#453);
#142=LINE('',#387,#170);
#143=LINE('',#390,#171);
#144=LINE('',#392,#172);
#145=LINE('',#394,#173);
#146=LINE('',#398,#174);
#147=LINE('',#400,#175);
#148=LINE('',#402,#176);
#149=LINE('',#404,#177);
#150=LINE('',#406,#178);
#151=LINE('',#408,#179);
#152=LINE('',#410,#180);
#153=LINE('',#411,#181);
#154=LINE('',#413,#182);
#155=LINE('',#416,#183);
#156=LINE('',#418,#184);
#157=LINE('',#420,#185);
#158=LINE('',#422,#186);
#159=LINE('',#425,#187);
#160=LINE('',#427,#188);
#161=LINE('',#429,#189);
#162=LINE('',#431,#190);
#163=LINE('',#432,#191);
#164=LINE('',#434,#192);
#165=LINE('',#436,#193);
#166=LINE('',#439,#194);
#167=LINE('',#440,#195);
#168=LINE('',#442,#196);
#169=LINE('',#444,#197);
#170=VECTOR('',#315,1000.);
#171=VECTOR('',#316,1000.);
#172=VECTOR('',#317,1000.);
#173=VECTOR('',#318,1000.);
#174=VECTOR('',#323,1000.);
#175=VECTOR('',#324,1000.);
#176=VECTOR('',#325,1000.);
#177=VECTOR('',#328,1000.);
#178=VECTOR('',#329,1000.);
#179=VECTOR('',#330,1000.);
#180=VECTOR('',#333,1000.);
#181=VECTOR('',#334,1000.);
#182=VECTOR('',#337,1000.);
#183=VECTOR('',#338,1000.);
#184=VECTOR('',#339,1000.);
#185=VECTOR('',#340,1000.);
#186=VECTOR('',#343,1000.);
#187=VECTOR('',#344,1000.);
#188=VECTOR('',#345,1000.);
#189=VECTOR('',#346,1000.);
#190=VECTOR('',#349,1000.);
#191=VECTOR('',#350,1000.);
#192=VECTOR('',#353,1000.);
#193=VECTOR('',#356,1000.);
#194=VECTOR('',#361,1000.);
#195=VECTOR('',#362,1000.);
#196=VECTOR('',#365,1000.);
#197=VECTOR('',#368,1000.);
#198=EDGE_LOOP('',(#26,#27,#28,#29));
#199=EDGE_LOOP('',(#30));
#200=EDGE_LOOP('',(#31,#32,#33,#34));
#201=EDGE_LOOP('',(#35,#36,#37,#38));
#202=EDGE_LOOP('',(#39,#40,#41,#42));
#203=EDGE_LOOP('',(#43,#44,#45,#46));
#204=EDGE_LOOP('',(#47,#48,#49,#50));
#205=EDGE_LOOP('',(#51,#52,#53,#54));
#206=EDGE_LOOP('',(#55,#56,#57,#58));
#207=EDGE_LOOP('',(#59,#60,#61,#62));
#208=EDGE_LOOP('',(#63,#64,#65,#66));
#209=EDGE_LOOP('',(#67,#68,#69,#70));
#210=EDGE_LOOP('',(#71,#72,#73,#74));
#211=EDGE_LOOP('',(#75,#76,#77,#78));
#212=EDGE_LOOP('',(#79,#80,#81,#82));
#213=EDGE_LOOP('',(#83));
#214=EDGE_LOOP('',(#84));
#215=EDGE_LOOP('',(#85));
#216=EDGE_LOOP('',(#86));
#217=EDGE_LOOP('',(#87));
#218=EDGE_LOOP('',(#88));
#219=EDGE_LOOP('',(#89));
#220=FACE_BOUND('',#198,.T.);
#221=FACE_BOUND('',#199,.T.);
#222=FACE_BOUND('',#200,.T.);
#223=FACE_BOUND('',#201,.T.);
#224=FACE_BOUND('',#202,.T.);
#225=FACE_BOUND('',#203,.T.);
#226=FACE_BOUND('',#204,.T.);
#227=FACE_BOUND('',#205,.T.);
#228=FACE_BOUND('',#206,.T.);
#229=FACE_BOUND('',#207,.T.);
#230=FACE_BOUND('',#208,.T.);
#231=FACE_BOUND('',#209,.T.);
#232=FACE_BOUND('',#210,.T.);
#233=FACE_BOUND('',#211,.T.);
#234=FACE_BOUND('',#212,.T.);
#235=FACE_BOUND('',#213,.T.);
#236=FACE_BOUND('',#214,.T.);
#237=FACE_BOUND('',#215,.T.);
#238=FACE_BOUND('',#216,.T.);
#239=FACE_BOUND('',#217,.T.);
#240=FACE_BOUND('',#218,.T.);
#241=FACE_BOUND('',#219,.T.);
#242=PLANE('',#289);
#243=PLANE('',#290);
#244=PLANE('',#292);
#245=PLANE('',#293);
#246=PLANE('',#294);
#247=PLANE('',#295);
#248=PLANE('',#296);
#249=PLANE('',#297);
#250=PLANE('',#298);
#251=PLANE('',#299);
#252=PLANE('',#300);
#253=PLANE('',#301);
#254=PLANE('',#302);
#255=PLANE('',#303);
#256=PLANE('',#309);
#257=PLANE('',#310);
#258=ADVANCED_FACE('',(#220),#242,.T.);
#259=ADVANCED_FACE('',(#221,#222),#243,.T.);
#260=ADVANCED_FACE('',(#223),#244,.T.);
#261=ADVANCED_FACE('',(#224),#245,.T.);
#262=ADVANCED_FACE('',(#225),#246,.F.);
#263=ADVANCED_FACE('',(#226),#247,.T.);
#264=ADVANCED_FACE('',(#227),#248,.T.);
#265=ADVANCED_FACE('',(#228),#249,.T.);
#266=ADVANCED_FACE('',(#229),#250,.T.);
#267=ADVANCED_FACE('',(#230),#251,.T.);
#268=ADVANCED_FACE('',(#231),#252,.F.);
#269=ADVANCED_FACE('',(#232),#253,.F.);
#270=ADVANCED_FACE('',(#233),#254,.F.);
#271=ADVANCED_FACE('',(#234),#255,.F.);
#272=ADVANCED_FACE('',(#235,#236),#21,.T.);
#273=ADVANCED_FACE('',(#237,#238),#20,.T.);
#274=ADVANCED_FACE('',(#239),#256,.F.);
#275=ADVANCED_FACE('',(#240,#241),#257,.T.);
#276=CLOSED_SHELL('',(#258,#259,#260,#261,#262,#263,#264,#265,#266,#267,
#268,#269,#270,#271,#272,#273,#274,#275));
#277=STYLED_ITEM('',(#278),#285);
#278=PRESENTATION_STYLE_ASSIGNMENT((#279));
#279=SURFACE_STYLE_USAGE(.BOTH.,#280);
#280=SURFACE_SIDE_STYLE('',(#281));
#281=SURFACE_STYLE_FILL_AREA(#282);
#282=FILL_AREA_STYLE('',(#283));
#283=FILL_AREA_STYLE_COLOUR('',#284);
#284=COLOUR_RGB('',0.645180702209473,0.678915679454803,0.699999988079071);
#285=MANIFOLD_SOLID_BREP('',#276);
#286=SHAPE_DEFINITION_REPRESENTATION(#462,#287);
#287=SHAPE_REPRESENTATION('Part6',(#288),#457);
#288=AXIS2_PLACEMENT_3D('',#385,#311,#312);
#289=AXIS2_PLACEMENT_3D('',#386,#313,#314);
#290=AXIS2_PLACEMENT_3D('',#395,#319,#320);
#291=AXIS2_PLACEMENT_3D('',#396,#321,#322);
#292=AXIS2_PLACEMENT_3D('',#403,#326,#327);
#293=AXIS2_PLACEMENT_3D('',#409,#331,#332);
#294=AXIS2_PLACEMENT_3D('',#412,#335,#336);
#295=AXIS2_PLACEMENT_3D('',#421,#341,#342);
#296=AXIS2_PLACEMENT_3D('',#430,#347,#348);
#297=AXIS2_PLACEMENT_3D('',#433,#351,#352);
#298=AXIS2_PLACEMENT_3D('',#435,#354,#355);
#299=AXIS2_PLACEMENT_3D('',#437,#357,#358);
#300=AXIS2_PLACEMENT_3D('',#438,#359,#360);
#301=AXIS2_PLACEMENT_3D('',#441,#363,#364);
#302=AXIS2_PLACEMENT_3D('',#443,#366,#367);
#303=AXIS2_PLACEMENT_3D('',#445,#369,#370);
#304=AXIS2_PLACEMENT_3D('',#446,#371,#372);
#305=AXIS2_PLACEMENT_3D('',#447,#373,#374);
#306=AXIS2_PLACEMENT_3D('',#449,#375,#376);
#307=AXIS2_PLACEMENT_3D('',#450,#377,#378);
#308=AXIS2_PLACEMENT_3D('',#452,#379,#380);
#309=AXIS2_PLACEMENT_3D('',#454,#381,#382);
#310=AXIS2_PLACEMENT_3D('',#455,#383,#384);
#311=DIRECTION('',(0.,0.,1.));
#312=DIRECTION('',(1.,0.,0.));
#313=DIRECTION('',(1.,0.,0.));
#314=DIRECTION('',(0.,0.,-1.));
#315=DIRECTION('',(0.,-1.,0.));
#316=DIRECTION('',(0.,0.,1.));
#317=DIRECTION('',(0.,-1.,0.));
#318=DIRECTION('',(0.,0.,-1.));
#319=DIRECTION('',(0.,0.,1.));
#320=DIRECTION('',(1.,0.,0.));
#321=DIRECTION('',(0.,0.,1.));
#322=DIRECTION('',(1.,0.,0.));
#323=DIRECTION('',(-1.,0.,0.));
#324=DIRECTION('',(0.,-1.,0.));
#325=DIRECTION('',(1.,0.,0.));
#326=DIRECTION('',(-1.,0.,0.));
#327=DIRECTION('',(0.,0.,1.));
#328=DIRECTION('',(0.,0.,-1.));
#329=DIRECTION('',(0.,-1.,0.));
#330=DIRECTION('',(0.,0.,1.));
#331=DIRECTION('',(0.,0.,-1.));
#332=DIRECTION('',(-1.,0.,0.));
#333=DIRECTION('',(1.,0.,0.));
#334=DIRECTION('',(-1.,0.,0.));
#335=DIRECTION('',(0.,-1.,0.));
#336=DIRECTION('',(0.,0.,-1.));
#337=DIRECTION('',(1.,0.,0.));
#338=DIRECTION('',(0.,0.,-1.));
#339=DIRECTION('',(-1.,0.,0.));
#340=DIRECTION('',(0.,0.,1.));
#341=DIRECTION('',(0.,-1.,0.));
#342=DIRECTION('',(0.,0.,-1.));
#343=DIRECTION('',(1.,0.,0.));
#344=DIRECTION('',(0.,0.,1.));
#345=DIRECTION('',(-1.,0.,0.));
#346=DIRECTION('',(0.,0.,-1.));
#347=DIRECTION('',(-0.707106781186547,0.707106781186547,0.));
#348=DIRECTION('',(0.,0.,1.));
#349=DIRECTION('',(-0.577350269189626,-0.577350269189626,0.577350269189625));
#350=DIRECTION('',(-0.577350269189626,-0.577350269189626,-0.577350269189625));
#351=DIRECTION('',(0.,0.707106781186547,-0.707106781186548));
#352=DIRECTION('',(-1.,0.,0.));
#353=DIRECTION('',(0.577350269189626,-0.577350269189626,-0.577350269189625));
#354=DIRECTION('',(0.,0.707106781186547,0.707106781186548));
#355=DIRECTION('',(1.,0.,0.));
#356=DIRECTION('',(-0.577350269189626,0.577350269189626,-0.577350269189625));
#357=DIRECTION('',(0.707106781186547,0.707106781186547,0.));
#358=DIRECTION('',(0.,0.,-1.));
#359=DIRECTION('',(0.707106781186547,0.707106781186547,0.));
#360=DIRECTION('',(0.,0.,-1.));
#361=DIRECTION('',(0.577350269189626,-0.577350269189626,-0.577350269189625));
#362=DIRECTION('',(0.577350269189626,-0.577350269189626,0.577350269189625));
#363=DIRECTION('',(0.,0.707106781186547,0.707106781186548));
#364=DIRECTION('',(1.,0.,0.));
#365=DIRECTION('',(-0.577350269189626,-0.577350269189626,0.577350269189625));
#366=DIRECTION('',(0.,0.707106781186547,-0.707106781186548));
#367=DIRECTION('',(-1.,0.,0.));
#368=DIRECTION('',(0.577350269189626,0.577350269189626,0.577350269189625));
#369=DIRECTION('',(-0.707106781186547,0.707106781186547,0.));
#370=DIRECTION('',(0.,0.,1.));
#371=DIRECTION('',(0.,0.,-1.));
#372=DIRECTION('',(-1.,0.,0.));
#373=DIRECTION('',(0.,0.,-1.));
#374=DIRECTION('',(1.,0.,0.));
#375=DIRECTION('',(0.,0.,1.));
#376=DIRECTION('',(1.,0.,0.));
#377=DIRECTION('',(0.,0.,-1.));
#378=DIRECTION('',(1.,0.,0.));
#379=DIRECTION('',(0.,0.,-1.));
#380=DIRECTION('',(-1.,0.,0.));
#381=DIRECTION('',(0.,0.,-1.));
#382=DIRECTION('',(-1.,0.,0.));
#383=DIRECTION('',(0.,0.,-1.));
#384=DIRECTION('',(-1.,0.,0.));
#385=CARTESIAN_POINT('',(0.,0.,0.));
#386=CARTESIAN_POINT('',(126.5,80.,-61.));
#387=CARTESIAN_POINT('',(126.5,80.,-61.));
#388=CARTESIAN_POINT('',(126.5,75.,-61.));
#389=CARTESIAN_POINT('',(126.5,5.,-61.));
#390=CARTESIAN_POINT('',(126.5,75.,61.));
#391=CARTESIAN_POINT('',(126.5,75.,61.));
#392=CARTESIAN_POINT('',(126.5,80.,61.));
#393=CARTESIAN_POINT('',(126.5,5.,61.));
#394=CARTESIAN_POINT('',(126.5,5.,-61.));
#395=CARTESIAN_POINT('',(126.5,80.,61.));
#396=CARTESIAN_POINT('',(0.,40.,61.));
#397=CARTESIAN_POINT('',(7.5,40.,61.));
#398=CARTESIAN_POINT('',(-126.5,75.,61.));
#399=CARTESIAN_POINT('',(-126.5,75.,61.));
#400=CARTESIAN_POINT('',(-126.5,80.,61.));
#401=CARTESIAN_POINT('',(-126.5,5.,61.));
#402=CARTESIAN_POINT('',(126.5,5.,61.));
#403=CARTESIAN_POINT('',(-126.5,80.,61.));
#404=CARTESIAN_POINT('',(-126.5,75.,-61.));
#405=CARTESIAN_POINT('',(-126.5,75.,-61.));
#406=CARTESIAN_POINT('',(-126.5,80.,-61.));
#407=CARTESIAN_POINT('',(-126.5,5.,-61.));
#408=CARTESIAN_POINT('',(-126.5,5.,61.));
#409=CARTESIAN_POINT('',(-126.5,80.,-61.));
#410=CARTESIAN_POINT('',(126.5,75.,-61.));
#411=CARTESIAN_POINT('',(-126.5,5.,-61.));
#412=CARTESIAN_POINT('',(0.,80.,0.));
#413=CARTESIAN_POINT('',(126.5,80.,56.));
#414=CARTESIAN_POINT('',(-121.5,80.,56.));
#415=CARTESIAN_POINT('',(121.5,80.,56.));
#416=CARTESIAN_POINT('',(121.5,80.,-61.));
#417=CARTESIAN_POINT('',(121.5,80.,-56.));
#418=CARTESIAN_POINT('',(-126.5,80.,-56.));
#419=CARTESIAN_POINT('',(-121.5,80.,-56.));
#420=CARTESIAN_POINT('',(-121.5,80.,61.));
#421=CARTESIAN_POINT('',(0.,0.,0.));
#422=CARTESIAN_POINT('',(0.,0.,-56.));
#423=CARTESIAN_POINT('',(-121.5,0.,-56.));
#424=CARTESIAN_POINT('',(121.5,0.,-56.));
#425=CARTESIAN_POINT('',(121.5,0.,0.));
#426=CARTESIAN_POINT('',(121.5,0.,56.));
#427=CARTESIAN_POINT('',(0.,0.,56.));
#428=CARTESIAN_POINT('',(-121.5,0.,56.));
#429=CARTESIAN_POINT('',(-121.5,0.,0.));
#430=CARTESIAN_POINT('',(-126.5,75.,61.));
#431=CARTESIAN_POINT('',(-42.1666666666666,159.333333333333,-23.3333333333333));
#432=CARTESIAN_POINT('',(-85.8333333333333,115.666666666667,-20.3333333333334));
#433=CARTESIAN_POINT('',(-126.5,75.,-61.));
#434=CARTESIAN_POINT('',(42.1666666666666,159.333333333333,23.3333333333333));
#435=CARTESIAN_POINT('',(126.5,75.,61.));
#436=CARTESIAN_POINT('',(126.5,75.,61.));
#437=CARTESIAN_POINT('',(126.5,75.,-61.));
#438=CARTESIAN_POINT('',(-121.5,0.,0.));
#439=CARTESIAN_POINT('',(-81.,-40.5,15.5));
#440=CARTESIAN_POINT('',(-102.833333333333,-18.6666666666667,-37.3333333333334));
#441=CARTESIAN_POINT('',(0.,0.,-56.));
#442=CARTESIAN_POINT('',(81.,-40.5,-15.5));
#443=CARTESIAN_POINT('',(0.,0.,56.));
#444=CARTESIAN_POINT('',(81.,-40.5,15.5));
#445=CARTESIAN_POINT('',(121.5,0.,0.));
#446=CARTESIAN_POINT('',(0.,40.,461.));
#447=CARTESIAN_POINT('',(0.,40.,461.));
#448=CARTESIAN_POINT('',(7.5,40.,461.));
#449=CARTESIAN_POINT('',(0.,40.,526.));
#450=CARTESIAN_POINT('',(0.,40.,526.));
#451=CARTESIAN_POINT('',(25.,40.,526.));
#452=CARTESIAN_POINT('',(0.,40.,461.));
#453=CARTESIAN_POINT('',(-19.3132368708149,40.,461.));
#454=CARTESIAN_POINT('',(0.,40.,526.));
#455=CARTESIAN_POINT('',(0.,40.,461.));
#456=MECHANICAL_DESIGN_GEOMETRIC_PRESENTATION_REPRESENTATION('',(#277),
#457);
#457=(
GEOMETRIC_REPRESENTATION_CONTEXT(3)
GLOBAL_UNCERTAINTY_ASSIGNED_CONTEXT((#458))
GLOBAL_UNIT_ASSIGNED_CONTEXT((#461,#460,#459))
REPRESENTATION_CONTEXT('Part6','TOP_LEVEL_ASSEMBLY_PART')
);
#458=UNCERTAINTY_MEASURE_WITH_UNIT(LENGTH_MEASURE(0.005),#461,
'DISTANCE_ACCURACY_VALUE','Maximum Tolerance applied to model');
#459=(
NAMED_UNIT(*)
SI_UNIT($,.STERADIAN.)
SOLID_ANGLE_UNIT()
);
#460=(
NAMED_UNIT(*)
PLANE_ANGLE_UNIT()
SI_UNIT($,.RADIAN.)
);
#461=(
LENGTH_UNIT()
NAMED_UNIT(*)
SI_UNIT(.MILLI.,.METRE.)
);
#462=PRODUCT_DEFINITION_SHAPE('','',#463);
#463=PRODUCT_DEFINITION('','',#465,#464);
#464=PRODUCT_DEFINITION_CONTEXT('',#471,'design');
#465=PRODUCT_DEFINITION_FORMATION_WITH_SPECIFIED_SOURCE('','',#467,
 .NOT_KNOWN.);
#466=PRODUCT_RELATED_PRODUCT_CATEGORY('','',(#467));
#467=PRODUCT('Part6','Part6','Part6',(#469));
#468=PRODUCT_CATEGORY('','');
#469=PRODUCT_CONTEXT('',#471,'mechanical');
#470=APPLICATION_PROTOCOL_DEFINITION('international standard',
'automotive_design',2010,#471);
#471=APPLICATION_CONTEXT(
'core data for automotive mechanical design processes');
ENDSEC;
END-ISO-10303-21;
