ISO-10303-21;
HEADER;
/* Generated by software containing ST-Developer
 * from STEP Tools, Inc. (www.steptools.com) 
 */
/* OPTION: strings as raw bytes, not using required /X/ escapes */

FILE_DESCRIPTION(
/* description */ ('Unknown'),
/* implementation_level */ '2;1');

FILE_NAME(
/* name */ 'SNP 7288 P LED 230V',
/* time_stamp */ '2018-06-19T11:37:13+02:00',
/* author */ ('Unknown'),
/* organization */ ('Unknown'),
/* preprocessor_version */ 'ST-DEVELOPER v16.7',
/* originating_system */ 'DEX',
/* authorisation */ $);

FILE_SCHEMA (('AUTOMOTIVE_DESIGN {1 0 10303 214 3 1 1}'));
ENDSEC;

DATA;
#10=PROPERTY_DEFINITION_REPRESENTATION(#14,#12);
#11=PROPERTY_DEFINITION_REPRESENTATION(#15,#13);
#12=REPRESENTATION('',(#16),#537);
#13=REPRESENTATION('',(#17),#537);
#14=PROPERTY_DEFINITION('pmi validation property','',#542);
#15=PROPERTY_DEFINITION('pmi validation property','',#542);
#16=VALUE_REPRESENTATION_ITEM('number of annotations',COUNT_MEASURE(0.));
#17=VALUE_REPRESENTATION_ITEM('number of views',COUNT_MEASURE(0.));
#18=SHAPE_REPRESENTATION_RELATIONSHIP('','',#331,#19);
#19=ADVANCED_BREP_SHAPE_REPRESENTATION('',(#329),#537);
#20=CONICAL_SURFACE('',#353,15.,0.0872664625997165);
#21=CONICAL_SURFACE('',#358,15.,0.0872664625997165);
#22=CYLINDRICAL_SURFACE('',#349,7.49999999999999);
#23=CYLINDRICAL_SURFACE('',#351,7.50000000000001);
#24=CIRCLE('',#335,7.50000000000001);
#25=CIRCLE('',#336,7.49999999999999);
#26=CIRCLE('',#350,7.49999999999999);
#27=CIRCLE('',#352,7.50000000000001);
#28=CIRCLE('',#354,15.);
#29=CIRCLE('',#355,11.500453458963);
#30=CIRCLE('',#359,15.);
#31=CIRCLE('',#360,11.500453458963);
#32=ORIENTED_EDGE('',*,*,#104,.F.);
#33=ORIENTED_EDGE('',*,*,#105,.T.);
#34=ORIENTED_EDGE('',*,*,#106,.T.);
#35=ORIENTED_EDGE('',*,*,#107,.T.);
#36=ORIENTED_EDGE('',*,*,#108,.F.);
#37=ORIENTED_EDGE('',*,*,#109,.F.);
#38=ORIENTED_EDGE('',*,*,#106,.F.);
#39=ORIENTED_EDGE('',*,*,#110,.T.);
#40=ORIENTED_EDGE('',*,*,#111,.T.);
#41=ORIENTED_EDGE('',*,*,#112,.T.);
#42=ORIENTED_EDGE('',*,*,#111,.F.);
#43=ORIENTED_EDGE('',*,*,#113,.T.);
#44=ORIENTED_EDGE('',*,*,#114,.T.);
#45=ORIENTED_EDGE('',*,*,#115,.T.);
#46=ORIENTED_EDGE('',*,*,#114,.F.);
#47=ORIENTED_EDGE('',*,*,#116,.T.);
#48=ORIENTED_EDGE('',*,*,#104,.T.);
#49=ORIENTED_EDGE('',*,*,#117,.T.);
#50=ORIENTED_EDGE('',*,*,#118,.T.);
#51=ORIENTED_EDGE('',*,*,#119,.T.);
#52=ORIENTED_EDGE('',*,*,#120,.T.);
#53=ORIENTED_EDGE('',*,*,#121,.T.);
#54=ORIENTED_EDGE('',*,*,#122,.T.);
#55=ORIENTED_EDGE('',*,*,#123,.T.);
#56=ORIENTED_EDGE('',*,*,#124,.T.);
#57=ORIENTED_EDGE('',*,*,#125,.T.);
#58=ORIENTED_EDGE('',*,*,#126,.F.);
#59=ORIENTED_EDGE('',*,*,#121,.F.);
#60=ORIENTED_EDGE('',*,*,#127,.F.);
#61=ORIENTED_EDGE('',*,*,#113,.F.);
#62=ORIENTED_EDGE('',*,*,#127,.T.);
#63=ORIENTED_EDGE('',*,*,#120,.F.);
#64=ORIENTED_EDGE('',*,*,#128,.F.);
#65=ORIENTED_EDGE('',*,*,#116,.F.);
#66=ORIENTED_EDGE('',*,*,#126,.T.);
#67=ORIENTED_EDGE('',*,*,#110,.F.);
#68=ORIENTED_EDGE('',*,*,#129,.F.);
#69=ORIENTED_EDGE('',*,*,#118,.F.);
#70=ORIENTED_EDGE('',*,*,#128,.T.);
#71=ORIENTED_EDGE('',*,*,#119,.F.);
#72=ORIENTED_EDGE('',*,*,#129,.T.);
#73=ORIENTED_EDGE('',*,*,#105,.F.);
#74=ORIENTED_EDGE('',*,*,#130,.F.);
#75=ORIENTED_EDGE('',*,*,#115,.F.);
#76=ORIENTED_EDGE('',*,*,#131,.F.);
#77=ORIENTED_EDGE('',*,*,#125,.F.);
#78=ORIENTED_EDGE('',*,*,#131,.T.);
#79=ORIENTED_EDGE('',*,*,#117,.F.);
#80=ORIENTED_EDGE('',*,*,#132,.F.);
#81=ORIENTED_EDGE('',*,*,#122,.F.);
#82=ORIENTED_EDGE('',*,*,#130,.T.);
#83=ORIENTED_EDGE('',*,*,#124,.F.);
#84=ORIENTED_EDGE('',*,*,#133,.F.);
#85=ORIENTED_EDGE('',*,*,#112,.F.);
#86=ORIENTED_EDGE('',*,*,#132,.T.);
#87=ORIENTED_EDGE('',*,*,#107,.F.);
#88=ORIENTED_EDGE('',*,*,#133,.T.);
#89=ORIENTED_EDGE('',*,*,#123,.F.);
#90=ORIENTED_EDGE('',*,*,#134,.T.);
#91=ORIENTED_EDGE('',*,*,#109,.T.);
#92=ORIENTED_EDGE('',*,*,#135,.T.);
#93=ORIENTED_EDGE('',*,*,#108,.T.);
#94=ORIENTED_EDGE('',*,*,#136,.T.);
#95=ORIENTED_EDGE('',*,*,#137,.F.);
#96=ORIENTED_EDGE('',*,*,#136,.F.);
#97=ORIENTED_EDGE('',*,*,#134,.F.);
#98=ORIENTED_EDGE('',*,*,#137,.T.);
#99=ORIENTED_EDGE('',*,*,#138,.T.);
#100=ORIENTED_EDGE('',*,*,#139,.F.);
#101=ORIENTED_EDGE('',*,*,#138,.F.);
#102=ORIENTED_EDGE('',*,*,#135,.F.);
#103=ORIENTED_EDGE('',*,*,#139,.T.);
#104=EDGE_CURVE('',#140,#141,#164,.T.);
#105=EDGE_CURVE('',#140,#142,#165,.T.);
#106=EDGE_CURVE('',#142,#143,#166,.T.);
#107=EDGE_CURVE('',#143,#141,#167,.T.);
#108=EDGE_CURVE('',#144,#144,#24,.T.);
#109=EDGE_CURVE('',#145,#145,#25,.T.);
#110=EDGE_CURVE('',#142,#146,#168,.T.);
#111=EDGE_CURVE('',#146,#147,#169,.T.);
#112=EDGE_CURVE('',#147,#143,#170,.T.);
#113=EDGE_CURVE('',#146,#148,#171,.T.);
#114=EDGE_CURVE('',#148,#149,#172,.T.);
#115=EDGE_CURVE('',#149,#147,#173,.T.);
#116=EDGE_CURVE('',#148,#140,#174,.T.);
#117=EDGE_CURVE('',#141,#149,#175,.T.);
#118=EDGE_CURVE('',#150,#151,#176,.T.);
#119=EDGE_CURVE('',#151,#152,#177,.T.);
#120=EDGE_CURVE('',#152,#153,#178,.T.);
#121=EDGE_CURVE('',#153,#150,#179,.T.);
#122=EDGE_CURVE('',#154,#155,#180,.T.);
#123=EDGE_CURVE('',#155,#156,#181,.T.);
#124=EDGE_CURVE('',#156,#157,#182,.T.);
#125=EDGE_CURVE('',#157,#154,#183,.T.);
#126=EDGE_CURVE('',#150,#146,#184,.T.);
#127=EDGE_CURVE('',#148,#153,#185,.F.);
#128=EDGE_CURVE('',#140,#152,#186,.F.);
#129=EDGE_CURVE('',#151,#142,#187,.F.);
#130=EDGE_CURVE('',#147,#157,#188,.T.);
#131=EDGE_CURVE('',#154,#149,#189,.F.);
#132=EDGE_CURVE('',#155,#141,#190,.F.);
#133=EDGE_CURVE('',#143,#156,#191,.F.);
#134=EDGE_CURVE('',#158,#158,#26,.T.);
#135=EDGE_CURVE('',#159,#159,#27,.T.);
#136=EDGE_CURVE('',#160,#160,#28,.T.);
#137=EDGE_CURVE('',#161,#161,#29,.T.);
#138=EDGE_CURVE('',#162,#162,#30,.T.);
#139=EDGE_CURVE('',#163,#163,#31,.T.);
#140=VERTEX_POINT('',#456);
#141=VERTEX_POINT('',#457);
#142=VERTEX_POINT('',#459);
#143=VERTEX_POINT('',#461);
#144=VERTEX_POINT('',#465);
#145=VERTEX_POINT('',#467);
#146=VERTEX_POINT('',#469);
#147=VERTEX_POINT('',#471);
#148=VERTEX_POINT('',#475);
#149=VERTEX_POINT('',#477);
#150=VERTEX_POINT('',#484);
#151=VERTEX_POINT('',#485);
#152=VERTEX_POINT('',#487);
#153=VERTEX_POINT('',#489);
#154=VERTEX_POINT('',#493);
#155=VERTEX_POINT('',#494);
#156=VERTEX_POINT('',#496);
#157=VERTEX_POINT('',#498);
#158=VERTEX_POINT('',#518);
#159=VERTEX_POINT('',#521);
#160=VERTEX_POINT('',#524);
#161=VERTEX_POINT('',#526);
#162=VERTEX_POINT('',#531);
#163=VERTEX_POINT('',#533);
#164=LINE('',#455,#192);
#165=LINE('',#458,#193);
#166=LINE('',#460,#194);
#167=LINE('',#462,#195);
#168=LINE('',#468,#196);
#169=LINE('',#470,#197);
#170=LINE('',#472,#198);
#171=LINE('',#474,#199);
#172=LINE('',#476,#200);
#173=LINE('',#478,#201);
#174=LINE('',#480,#202);
#175=LINE('',#481,#203);
#176=LINE('',#483,#204);
#177=LINE('',#486,#205);
#178=LINE('',#488,#206);
#179=LINE('',#490,#207);
#180=LINE('',#492,#208);
#181=LINE('',#495,#209);
#182=LINE('',#497,#210);
#183=LINE('',#499,#211);
#184=LINE('',#501,#212);
#185=LINE('',#502,#213);
#186=LINE('',#504,#214);
#187=LINE('',#506,#215);
#188=LINE('',#509,#216);
#189=LINE('',#510,#217);
#190=LINE('',#512,#218);
#191=LINE('',#514,#219);
#192=VECTOR('',#367,1000.);
#193=VECTOR('',#368,1000.);
#194=VECTOR('',#369,1000.);
#195=VECTOR('',#370,1000.);
#196=VECTOR('',#377,1000.);
#197=VECTOR('',#378,1000.);
#198=VECTOR('',#379,1000.);
#199=VECTOR('',#382,1000.);
#200=VECTOR('',#383,1000.);
#201=VECTOR('',#384,1000.);
#202=VECTOR('',#387,1000.);
#203=VECTOR('',#388,1000.);
#204=VECTOR('',#391,1000.);
#205=VECTOR('',#392,1000.);
#206=VECTOR('',#393,1000.);
#207=VECTOR('',#394,1000.);
#208=VECTOR('',#397,1000.);
#209=VECTOR('',#398,1000.);
#210=VECTOR('',#399,1000.);
#211=VECTOR('',#400,1000.);
#212=VECTOR('',#403,1000.);
#213=VECTOR('',#404,1000.);
#214=VECTOR('',#407,1000.);
#215=VECTOR('',#410,1000.);
#216=VECTOR('',#415,1000.);
#217=VECTOR('',#416,1000.);
#218=VECTOR('',#419,1000.);
#219=VECTOR('',#422,1000.);
#220=EDGE_LOOP('',(#32,#33,#34,#35));
#221=EDGE_LOOP('',(#36));
#222=EDGE_LOOP('',(#37));
#223=EDGE_LOOP('',(#38,#39,#40,#41));
#224=EDGE_LOOP('',(#42,#43,#44,#45));
#225=EDGE_LOOP('',(#46,#47,#48,#49));
#226=EDGE_LOOP('',(#50,#51,#52,#53));
#227=EDGE_LOOP('',(#54,#55,#56,#57));
#228=EDGE_LOOP('',(#58,#59,#60,#61));
#229=EDGE_LOOP('',(#62,#63,#64,#65));
#230=EDGE_LOOP('',(#66,#67,#68,#69));
#231=EDGE_LOOP('',(#70,#71,#72,#73));
#232=EDGE_LOOP('',(#74,#75,#76,#77));
#233=EDGE_LOOP('',(#78,#79,#80,#81));
#234=EDGE_LOOP('',(#82,#83,#84,#85));
#235=EDGE_LOOP('',(#86,#87,#88,#89));
#236=EDGE_LOOP('',(#90));
#237=EDGE_LOOP('',(#91));
#238=EDGE_LOOP('',(#92));
#239=EDGE_LOOP('',(#93));
#240=EDGE_LOOP('',(#94));
#241=EDGE_LOOP('',(#95));
#242=EDGE_LOOP('',(#96));
#243=EDGE_LOOP('',(#97));
#244=EDGE_LOOP('',(#98));
#245=EDGE_LOOP('',(#99));
#246=EDGE_LOOP('',(#100));
#247=EDGE_LOOP('',(#101));
#248=EDGE_LOOP('',(#102));
#249=EDGE_LOOP('',(#103));
#250=FACE_BOUND('',#220,.T.);
#251=FACE_BOUND('',#221,.T.);
#252=FACE_BOUND('',#222,.T.);
#253=FACE_BOUND('',#223,.T.);
#254=FACE_BOUND('',#224,.T.);
#255=FACE_BOUND('',#225,.T.);
#256=FACE_BOUND('',#226,.T.);
#257=FACE_BOUND('',#227,.T.);
#258=FACE_BOUND('',#228,.T.);
#259=FACE_BOUND('',#229,.T.);
#260=FACE_BOUND('',#230,.T.);
#261=FACE_BOUND('',#231,.T.);
#262=FACE_BOUND('',#232,.T.);
#263=FACE_BOUND('',#233,.T.);
#264=FACE_BOUND('',#234,.T.);
#265=FACE_BOUND('',#235,.T.);
#266=FACE_BOUND('',#236,.T.);
#267=FACE_BOUND('',#237,.T.);
#268=FACE_BOUND('',#238,.T.);
#269=FACE_BOUND('',#239,.T.);
#270=FACE_BOUND('',#240,.T.);
#271=FACE_BOUND('',#241,.T.);
#272=FACE_BOUND('',#242,.T.);
#273=FACE_BOUND('',#243,.T.);
#274=FACE_BOUND('',#244,.T.);
#275=FACE_BOUND('',#245,.T.);
#276=FACE_BOUND('',#246,.T.);
#277=FACE_BOUND('',#247,.T.);
#278=FACE_BOUND('',#248,.T.);
#279=FACE_BOUND('',#249,.T.);
#280=PLANE('',#333);
#281=PLANE('',#334);
#282=PLANE('',#337);
#283=PLANE('',#338);
#284=PLANE('',#339);
#285=PLANE('',#340);
#286=PLANE('',#341);
#287=PLANE('',#342);
#288=PLANE('',#343);
#289=PLANE('',#344);
#290=PLANE('',#345);
#291=PLANE('',#346);
#292=PLANE('',#347);
#293=PLANE('',#348);
#294=PLANE('',#356);
#295=PLANE('',#357);
#296=PLANE('',#361);
#297=PLANE('',#362);
#298=ADVANCED_FACE('',(#250),#280,.T.);
#299=ADVANCED_FACE('',(#251,#252,#253),#281,.T.);
#300=ADVANCED_FACE('',(#254),#282,.T.);
#301=ADVANCED_FACE('',(#255),#283,.T.);
#302=ADVANCED_FACE('',(#256),#284,.F.);
#303=ADVANCED_FACE('',(#257),#285,.T.);
#304=ADVANCED_FACE('',(#258),#286,.T.);
#305=ADVANCED_FACE('',(#259),#287,.T.);
#306=ADVANCED_FACE('',(#260),#288,.T.);
#307=ADVANCED_FACE('',(#261),#289,.T.);
#308=ADVANCED_FACE('',(#262),#290,.F.);
#309=ADVANCED_FACE('',(#263),#291,.F.);
#310=ADVANCED_FACE('',(#264),#292,.F.);
#311=ADVANCED_FACE('',(#265),#293,.F.);
#312=ADVANCED_FACE('',(#266,#267),#22,.T.);
#313=ADVANCED_FACE('',(#268,#269),#23,.T.);
#314=ADVANCED_FACE('',(#270,#271),#20,.T.);
#315=ADVANCED_FACE('',(#272),#294,.F.);
#316=ADVANCED_FACE('',(#273,#274),#295,.T.);
#317=ADVANCED_FACE('',(#275,#276),#21,.T.);
#318=ADVANCED_FACE('',(#277),#296,.F.);
#319=ADVANCED_FACE('',(#278,#279),#297,.T.);
#320=CLOSED_SHELL('',(#298,#299,#300,#301,#302,#303,#304,#305,#306,#307,
#308,#309,#310,#311,#312,#313,#314,#315,#316,#317,#318,#319));
#321=STYLED_ITEM('',(#322),#329);
#322=PRESENTATION_STYLE_ASSIGNMENT((#323));
#323=SURFACE_STYLE_USAGE(.BOTH.,#324);
#324=SURFACE_SIDE_STYLE('',(#325));
#325=SURFACE_STYLE_FILL_AREA(#326);
#326=FILL_AREA_STYLE('',(#327));
#327=FILL_AREA_STYLE_COLOUR('',#328);
#328=COLOUR_RGB('',0.645180702209473,0.678915679454803,0.699999988079071);
#329=MANIFOLD_SOLID_BREP('',#320);
#330=SHAPE_DEFINITION_REPRESENTATION(#542,#331);
#331=SHAPE_REPRESENTATION('Part6',(#332),#537);
#332=AXIS2_PLACEMENT_3D('',#453,#363,#364);
#333=AXIS2_PLACEMENT_3D('',#454,#365,#366);
#334=AXIS2_PLACEMENT_3D('',#463,#371,#372);
#335=AXIS2_PLACEMENT_3D('',#464,#373,#374);
#336=AXIS2_PLACEMENT_3D('',#466,#375,#376);
#337=AXIS2_PLACEMENT_3D('',#473,#380,#381);
#338=AXIS2_PLACEMENT_3D('',#479,#385,#386);
#339=AXIS2_PLACEMENT_3D('',#482,#389,#390);
#340=AXIS2_PLACEMENT_3D('',#491,#395,#396);
#341=AXIS2_PLACEMENT_3D('',#500,#401,#402);
#342=AXIS2_PLACEMENT_3D('',#503,#405,#406);
#343=AXIS2_PLACEMENT_3D('',#505,#408,#409);
#344=AXIS2_PLACEMENT_3D('',#507,#411,#412);
#345=AXIS2_PLACEMENT_3D('',#508,#413,#414);
#346=AXIS2_PLACEMENT_3D('',#511,#417,#418);
#347=AXIS2_PLACEMENT_3D('',#513,#420,#421);
#348=AXIS2_PLACEMENT_3D('',#515,#423,#424);
#349=AXIS2_PLACEMENT_3D('',#516,#425,#426);
#350=AXIS2_PLACEMENT_3D('',#517,#427,#428);
#351=AXIS2_PLACEMENT_3D('',#519,#429,#430);
#352=AXIS2_PLACEMENT_3D('',#520,#431,#432);
#353=AXIS2_PLACEMENT_3D('',#522,#433,#434);
#354=AXIS2_PLACEMENT_3D('',#523,#435,#436);
#355=AXIS2_PLACEMENT_3D('',#525,#437,#438);
#356=AXIS2_PLACEMENT_3D('',#527,#439,#440);
#357=AXIS2_PLACEMENT_3D('',#528,#441,#442);
#358=AXIS2_PLACEMENT_3D('',#529,#443,#444);
#359=AXIS2_PLACEMENT_3D('',#530,#445,#446);
#360=AXIS2_PLACEMENT_3D('',#532,#447,#448);
#361=AXIS2_PLACEMENT_3D('',#534,#449,#450);
#362=AXIS2_PLACEMENT_3D('',#535,#451,#452);
#363=DIRECTION('',(0.,0.,1.));
#364=DIRECTION('',(1.,0.,0.));
#365=DIRECTION('',(1.,0.,0.));
#366=DIRECTION('',(0.,0.,-1.));
#367=DIRECTION('',(0.,-1.,0.));
#368=DIRECTION('',(0.,0.,1.));
#369=DIRECTION('',(0.,-1.,0.));
#370=DIRECTION('',(0.,0.,-1.));
#371=DIRECTION('',(-1.21734980770302E-16,0.,1.));
#372=DIRECTION('',(1.,0.,1.21734980770302E-16));
#373=DIRECTION('',(-1.21734980770302E-16,0.,1.));
#374=DIRECTION('',(1.,0.,1.21734980770302E-16));
#375=DIRECTION('',(-1.21734980770302E-16,0.,1.));
#376=DIRECTION('',(1.,0.,1.21734980770302E-16));
#377=DIRECTION('',(-1.,0.,-1.21734980770302E-16));
#378=DIRECTION('',(0.,-1.,0.));
#379=DIRECTION('',(1.,0.,1.21734980770302E-16));
#380=DIRECTION('',(-1.,0.,0.));
#381=DIRECTION('',(0.,0.,1.));
#382=DIRECTION('',(0.,0.,-1.));
#383=DIRECTION('',(0.,-1.,0.));
#384=DIRECTION('',(0.,0.,1.));
#385=DIRECTION('',(1.21734980770302E-16,0.,-1.));
#386=DIRECTION('',(-1.,0.,-1.21734980770302E-16));
#387=DIRECTION('',(1.,0.,1.21734980770302E-16));
#388=DIRECTION('',(-1.,0.,-1.21734980770302E-16));
#389=DIRECTION('',(0.,-1.,0.));
#390=DIRECTION('',(0.,0.,-1.));
#391=DIRECTION('',(1.,0.,1.21734980770302E-16));
#392=DIRECTION('',(0.,0.,-1.));
#393=DIRECTION('',(-1.,0.,-1.21734980770302E-16));
#394=DIRECTION('',(0.,0.,1.));
#395=DIRECTION('',(0.,-1.,0.));
#396=DIRECTION('',(0.,0.,-1.));
#397=DIRECTION('',(1.,0.,1.21734980770302E-16));
#398=DIRECTION('',(0.,0.,1.));
#399=DIRECTION('',(-1.,0.,-1.21734980770302E-16));
#400=DIRECTION('',(0.,0.,-1.));
#401=DIRECTION('',(-0.707106781186547,0.707106781186547,0.));
#402=DIRECTION('',(0.,0.,1.));
#403=DIRECTION('',(-0.577350269189626,-0.577350269189626,0.577350269189625));
#404=DIRECTION('',(-0.577350269189625,-0.577350269189626,-0.577350269189626));
#405=DIRECTION('',(8.60796304102946E-17,0.707106781186548,-0.707106781186547));
#406=DIRECTION('',(-1.,0.,-1.21734980770302E-16));
#407=DIRECTION('',(0.577350269189626,-0.577350269189626,-0.577350269189626));
#408=DIRECTION('',(-8.60796304102947E-17,0.707106781186547,0.707106781186548));
#409=DIRECTION('',(1.,0.,1.21734980770302E-16));
#410=DIRECTION('',(-0.577350269189626,0.577350269189626,-0.577350269189625));
#411=DIRECTION('',(0.707106781186547,0.707106781186547,0.));
#412=DIRECTION('',(0.,0.,-1.));
#413=DIRECTION('',(0.707106781186547,0.707106781186547,0.));
#414=DIRECTION('',(0.,0.,-1.));
#415=DIRECTION('',(0.577350269189626,-0.577350269189626,-0.577350269189625));
#416=DIRECTION('',(0.577350269189625,-0.577350269189626,0.577350269189626));
#417=DIRECTION('',(-8.60796304102946E-17,0.707106781186548,0.707106781186547));
#418=DIRECTION('',(1.,0.,1.21734980770302E-16));
#419=DIRECTION('',(-0.577350269189626,-0.577350269189626,0.577350269189626));
#420=DIRECTION('',(8.60796304102947E-17,0.707106781186547,-0.707106781186548));
#421=DIRECTION('',(-1.,0.,-1.21734980770302E-16));
#422=DIRECTION('',(0.577350269189626,0.577350269189626,0.577350269189625));
#423=DIRECTION('',(-0.707106781186547,0.707106781186547,0.));
#424=DIRECTION('',(0.,0.,1.));
#425=DIRECTION('',(1.21734980770302E-16,0.,-1.));
#426=DIRECTION('',(-1.,0.,-1.21734980770302E-16));
#427=DIRECTION('',(1.21734980770302E-16,0.,-1.));
#428=DIRECTION('',(1.,0.,1.21734980770302E-16));
#429=DIRECTION('',(1.21734980770302E-16,0.,-1.));
#430=DIRECTION('',(-1.,0.,-1.21734980770302E-16));
#431=DIRECTION('',(1.21734980770302E-16,0.,-1.));
#432=DIRECTION('',(1.,0.,1.21734980770302E-16));
#433=DIRECTION('',(0.,0.,1.));
#434=DIRECTION('',(1.,0.,0.));
#435=DIRECTION('',(0.,0.,-1.));
#436=DIRECTION('',(1.,0.,0.));
#437=DIRECTION('',(0.,0.,-1.));
#438=DIRECTION('',(-1.,0.,0.));
#439=DIRECTION('',(0.,0.,-1.));
#440=DIRECTION('',(-1.,0.,0.));
#441=DIRECTION('',(0.,0.,-1.));
#442=DIRECTION('',(-1.,0.,0.));
#443=DIRECTION('',(0.,0.,1.));
#444=DIRECTION('',(1.,0.,0.));
#445=DIRECTION('',(0.,0.,-1.));
#446=DIRECTION('',(1.,0.,0.));
#447=DIRECTION('',(0.,0.,-1.));
#448=DIRECTION('',(-1.,0.,0.));
#449=DIRECTION('',(0.,0.,-1.));
#450=DIRECTION('',(-1.,0.,0.));
#451=DIRECTION('',(0.,0.,-1.));
#452=DIRECTION('',(-1.,0.,0.));
#453=CARTESIAN_POINT('',(0.,0.,0.));
#454=CARTESIAN_POINT('',(171.,80.,-96.));
#455=CARTESIAN_POINT('',(171.,80.,-96.));
#456=CARTESIAN_POINT('',(171.,75.,-96.));
#457=CARTESIAN_POINT('',(171.,5.,-96.));
#458=CARTESIAN_POINT('',(171.,75.,96.));
#459=CARTESIAN_POINT('',(171.,75.,96.));
#460=CARTESIAN_POINT('',(171.,80.,96.));
#461=CARTESIAN_POINT('',(171.,5.,96.));
#462=CARTESIAN_POINT('',(171.,5.,-96.));
#463=CARTESIAN_POINT('',(171.,80.,96.));
#464=CARTESIAN_POINT('',(117.5,40.,96.));
#465=CARTESIAN_POINT('',(125.,40.,96.));
#466=CARTESIAN_POINT('',(-117.5,40.,95.9999999999999));
#467=CARTESIAN_POINT('',(-110.,40.,95.9999999999999));
#468=CARTESIAN_POINT('',(-171.,75.,95.9999999999999));
#469=CARTESIAN_POINT('',(-171.,75.,95.9999999999999));
#470=CARTESIAN_POINT('',(-171.,80.,95.9999999999999));
#471=CARTESIAN_POINT('',(-171.,5.,95.9999999999999));
#472=CARTESIAN_POINT('',(171.,5.,96.));
#473=CARTESIAN_POINT('',(-171.,80.,95.9999999999999));
#474=CARTESIAN_POINT('',(-171.,75.,-96.0000000000001));
#475=CARTESIAN_POINT('',(-171.,75.,-96.0000000000001));
#476=CARTESIAN_POINT('',(-171.,80.,-96.0000000000001));
#477=CARTESIAN_POINT('',(-171.,5.,-96.0000000000001));
#478=CARTESIAN_POINT('',(-171.,5.,95.9999999999999));
#479=CARTESIAN_POINT('',(-171.,80.,-96.0000000000001));
#480=CARTESIAN_POINT('',(171.,75.,-96.));
#481=CARTESIAN_POINT('',(-171.,5.,-96.0000000000001));
#482=CARTESIAN_POINT('',(0.,80.,0.));
#483=CARTESIAN_POINT('',(171.,80.,91.));
#484=CARTESIAN_POINT('',(-166.,80.,91.));
#485=CARTESIAN_POINT('',(166.,80.,91.));
#486=CARTESIAN_POINT('',(166.,80.,-96.));
#487=CARTESIAN_POINT('',(166.,80.,-91.));
#488=CARTESIAN_POINT('',(-171.,80.,-91.));
#489=CARTESIAN_POINT('',(-166.,80.,-91.));
#490=CARTESIAN_POINT('',(-166.,80.,95.9999999999999));
#491=CARTESIAN_POINT('',(0.,0.,0.));
#492=CARTESIAN_POINT('',(1.10778832500975E-14,0.,-91.));
#493=CARTESIAN_POINT('',(-166.,0.,-91.));
#494=CARTESIAN_POINT('',(166.,0.,-91.));
#495=CARTESIAN_POINT('',(166.,0.,0.));
#496=CARTESIAN_POINT('',(166.,0.,91.));
#497=CARTESIAN_POINT('',(-1.10778832500975E-14,0.,91.));
#498=CARTESIAN_POINT('',(-166.,0.,91.));
#499=CARTESIAN_POINT('',(-166.,0.,0.));
#500=CARTESIAN_POINT('',(-171.,75.,95.9999999999999));
#501=CARTESIAN_POINT('',(-56.9999999999999,189.,-18.));
#502=CARTESIAN_POINT('',(-107.,139.,-31.9999999999999));
#503=CARTESIAN_POINT('',(-171.,75.,-96.0000000000001));
#504=CARTESIAN_POINT('',(57.0000000000001,189.,18.0000000000001));
#505=CARTESIAN_POINT('',(171.,75.,96.));
#506=CARTESIAN_POINT('',(171.,75.,96.));
#507=CARTESIAN_POINT('',(171.,75.,-96.));
#508=CARTESIAN_POINT('',(-166.,0.,0.));
#509=CARTESIAN_POINT('',(-110.666666666667,-55.3333333333334,35.6666666666666));
#510=CARTESIAN_POINT('',(-135.666666666667,-30.3333333333334,-60.6666666666666));
#511=CARTESIAN_POINT('',(1.10778832500975E-14,0.,-91.));
#512=CARTESIAN_POINT('',(110.666666666667,-55.3333333333333,-35.6666666666666));
#513=CARTESIAN_POINT('',(-1.10778832500975E-14,0.,91.));
#514=CARTESIAN_POINT('',(110.666666666667,-55.3333333333334,35.6666666666667));
#515=CARTESIAN_POINT('',(166.,0.,0.));
#516=CARTESIAN_POINT('',(-117.5,40.,496.));
#517=CARTESIAN_POINT('',(-117.5,40.,496.));
#518=CARTESIAN_POINT('',(-110.,40.,496.));
#519=CARTESIAN_POINT('',(117.5,40.,496.));
#520=CARTESIAN_POINT('',(117.5,40.,496.));
#521=CARTESIAN_POINT('',(125.,40.,496.));
#522=CARTESIAN_POINT('',(-117.5,40.,536.));
#523=CARTESIAN_POINT('',(-117.5,40.,536.));
#524=CARTESIAN_POINT('',(-102.5,40.,536.));
#525=CARTESIAN_POINT('',(-117.5,40.,496.));
#526=CARTESIAN_POINT('',(-129.000453458963,40.,496.));
#527=CARTESIAN_POINT('',(-117.5,40.,536.));
#528=CARTESIAN_POINT('',(-117.5,40.,496.));
#529=CARTESIAN_POINT('',(117.5,40.,536.));
#530=CARTESIAN_POINT('',(117.5,40.,536.));
#531=CARTESIAN_POINT('',(132.5,40.,536.));
#532=CARTESIAN_POINT('',(117.5,40.,496.));
#533=CARTESIAN_POINT('',(105.999546541037,40.,496.));
#534=CARTESIAN_POINT('',(117.5,40.,536.));
#535=CARTESIAN_POINT('',(117.5,40.,496.));
#536=MECHANICAL_DESIGN_GEOMETRIC_PRESENTATION_REPRESENTATION('',(#321),
#537);
#537=(
GEOMETRIC_REPRESENTATION_CONTEXT(3)
GLOBAL_UNCERTAINTY_ASSIGNED_CONTEXT((#538))
GLOBAL_UNIT_ASSIGNED_CONTEXT((#541,#540,#539))
REPRESENTATION_CONTEXT('Part6','TOP_LEVEL_ASSEMBLY_PART')
);
#538=UNCERTAINTY_MEASURE_WITH_UNIT(LENGTH_MEASURE(0.005),#541,
'DISTANCE_ACCURACY_VALUE','Maximum Tolerance applied to model');
#539=(
NAMED_UNIT(*)
SI_UNIT($,.STERADIAN.)
SOLID_ANGLE_UNIT()
);
#540=(
NAMED_UNIT(*)
PLANE_ANGLE_UNIT()
SI_UNIT($,.RADIAN.)
);
#541=(
LENGTH_UNIT()
NAMED_UNIT(*)
SI_UNIT(.MILLI.,.METRE.)
);
#542=PRODUCT_DEFINITION_SHAPE('','',#543);
#543=PRODUCT_DEFINITION('','',#545,#544);
#544=PRODUCT_DEFINITION_CONTEXT('',#551,'design');
#545=PRODUCT_DEFINITION_FORMATION_WITH_SPECIFIED_SOURCE('','',#547,
 .NOT_KNOWN.);
#546=PRODUCT_RELATED_PRODUCT_CATEGORY('','',(#547));
#547=PRODUCT('Part6','Part6','Part6',(#549));
#548=PRODUCT_CATEGORY('','');
#549=PRODUCT_CONTEXT('',#551,'mechanical');
#550=APPLICATION_PROTOCOL_DEFINITION('international standard',
'automotive_design',2010,#551);
#551=APPLICATION_CONTEXT(
'core data for automotive mechanical design processes');
ENDSEC;
END-ISO-10303-21;
