ISO-10303-21;
HEADER;
/* Generated by software containing ST-Developer
 * from STEP Tools, Inc. (www.steptools.com) 
 */
/* OPTION: strings as raw bytes, not using required /X/ escapes */

FILE_DESCRIPTION(
/* description */ ('Unknown'),
/* implementation_level */ '2;1');

FILE_NAME(
/* name */ 'SN 8040 TES 230V',
/* time_stamp */ '2018-04-12T08:20:28+02:00',
/* author */ ('Unknown'),
/* organization */ ('Unknown'),
/* preprocessor_version */ 'ST-DEVELOPER v16.7',
/* originating_system */ 'DEX',
/* authorisation */ $);

FILE_SCHEMA (('AUTOMOTIVE_DESIGN {1 0 10303 214 3 1 1}'));
ENDSEC;

DATA;
#10=PROPERTY_DEFINITION_REPRESENTATION(#14,#12);
#11=PROPERTY_DEFINITION_REPRESENTATION(#15,#13);
#12=REPRESENTATION('',(#16),#103);
#13=REPRESENTATION('',(#17),#103);
#14=PROPERTY_DEFINITION('pmi validation property','',#108);
#15=PROPERTY_DEFINITION('pmi validation property','',#108);
#16=VALUE_REPRESENTATION_ITEM('number of annotations',COUNT_MEASURE(0.));
#17=VALUE_REPRESENTATION_ITEM('number of views',COUNT_MEASURE(0.));
#18=SHAPE_REPRESENTATION_RELATIONSHIP('','',#66,#19);
#19=ADVANCED_BREP_SHAPE_REPRESENTATION('',(#64),#103);
#20=TOROIDAL_SURFACE('',#74,63.,2.);
#21=PLANE('',#71);
#22=PLANE('',#72);
#23=ORIENTED_EDGE('',*,*,#29,.T.);
#24=ORIENTED_EDGE('',*,*,#30,.T.);
#25=ORIENTED_EDGE('',*,*,#30,.F.);
#26=ORIENTED_EDGE('',*,*,#31,.T.);
#27=ORIENTED_EDGE('',*,*,#29,.F.);
#28=ORIENTED_EDGE('',*,*,#31,.F.);
#29=EDGE_CURVE('',#32,#32,#35,.F.);
#30=EDGE_CURVE('',#33,#33,#36,.T.);
#31=EDGE_CURVE('',#34,#34,#37,.T.);
#32=VERTEX_POINT('',#94);
#33=VERTEX_POINT('',#96);
#34=VERTEX_POINT('',#100);
#35=CIRCLE('',#69,65.);
#36=CIRCLE('',#70,65.);
#37=CIRCLE('',#73,63.);
#38=EDGE_LOOP('',(#23));
#39=EDGE_LOOP('',(#24));
#40=EDGE_LOOP('',(#25));
#41=EDGE_LOOP('',(#26));
#42=EDGE_LOOP('',(#27));
#43=EDGE_LOOP('',(#28));
#44=FACE_BOUND('',#38,.T.);
#45=FACE_BOUND('',#39,.T.);
#46=FACE_BOUND('',#40,.T.);
#47=FACE_BOUND('',#41,.T.);
#48=FACE_BOUND('',#42,.T.);
#49=FACE_BOUND('',#43,.T.);
#50=CYLINDRICAL_SURFACE('',#68,65.);
#51=ADVANCED_FACE('',(#44,#45),#50,.T.);
#52=ADVANCED_FACE('',(#46),#21,.F.);
#53=ADVANCED_FACE('',(#47),#22,.T.);
#54=ADVANCED_FACE('',(#48,#49),#20,.T.);
#55=CLOSED_SHELL('',(#51,#52,#53,#54));
#56=STYLED_ITEM('',(#57),#64);
#57=PRESENTATION_STYLE_ASSIGNMENT((#58));
#58=SURFACE_STYLE_USAGE(.BOTH.,#59);
#59=SURFACE_SIDE_STYLE('',(#60));
#60=SURFACE_STYLE_FILL_AREA(#61);
#61=FILL_AREA_STYLE('',(#62));
#62=FILL_AREA_STYLE_COLOUR('',#63);
#63=COLOUR_RGB('',0.506983280181885,0.531564235687256,0.550000011920929);
#64=MANIFOLD_SOLID_BREP('',#55);
#65=SHAPE_DEFINITION_REPRESENTATION(#108,#66);
#66=SHAPE_REPRESENTATION('SN 8040 TES 230V',(#67),#103);
#67=AXIS2_PLACEMENT_3D('',#91,#75,#76);
#68=AXIS2_PLACEMENT_3D('',#92,#77,#78);
#69=AXIS2_PLACEMENT_3D('',#93,#79,#80);
#70=AXIS2_PLACEMENT_3D('',#95,#81,#82);
#71=AXIS2_PLACEMENT_3D('',#97,#83,#84);
#72=AXIS2_PLACEMENT_3D('',#98,#85,#86);
#73=AXIS2_PLACEMENT_3D('',#99,#87,#88);
#74=AXIS2_PLACEMENT_3D('',#101,#89,#90);
#75=DIRECTION('',(0.,0.,1.));
#76=DIRECTION('',(1.,0.,0.));
#77=DIRECTION('',(0.,0.,-1.));
#78=DIRECTION('',(-1.,0.,0.));
#79=DIRECTION('',(0.,0.,-1.));
#80=DIRECTION('',(-1.,0.,0.));
#81=DIRECTION('',(0.,0.,-1.));
#82=DIRECTION('',(1.,0.,0.));
#83=DIRECTION('',(0.,0.,-1.));
#84=DIRECTION('',(-1.,0.,0.));
#85=DIRECTION('',(0.,0.,-1.));
#86=DIRECTION('',(-1.,0.,0.));
#87=DIRECTION('',(0.,0.,-1.));
#88=DIRECTION('',(-1.,0.,0.));
#89=DIRECTION('',(0.,0.,-1.));
#90=DIRECTION('',(-1.,0.,0.));
#91=CARTESIAN_POINT('',(0.,0.,0.));
#92=CARTESIAN_POINT('',(0.,0.,106.5));
#93=CARTESIAN_POINT('',(0.,0.,2.));
#94=CARTESIAN_POINT('',(-65.,0.,2.));
#95=CARTESIAN_POINT('',(0.,0.,106.5));
#96=CARTESIAN_POINT('',(65.,0.,106.5));
#97=CARTESIAN_POINT('',(0.,0.,106.5));
#98=CARTESIAN_POINT('',(0.,0.,0.));
#99=CARTESIAN_POINT('',(0.,0.,0.));
#100=CARTESIAN_POINT('',(-63.,0.,0.));
#101=CARTESIAN_POINT('',(0.,0.,2.));
#102=MECHANICAL_DESIGN_GEOMETRIC_PRESENTATION_REPRESENTATION('',(#56),#103);
#103=(
GEOMETRIC_REPRESENTATION_CONTEXT(3)
GLOBAL_UNCERTAINTY_ASSIGNED_CONTEXT((#104))
GLOBAL_UNIT_ASSIGNED_CONTEXT((#107,#106,#105))
REPRESENTATION_CONTEXT('SN 8040 TES 230V','TOP_LEVEL_ASSEMBLY_PART')
);
#104=UNCERTAINTY_MEASURE_WITH_UNIT(LENGTH_MEASURE(0.005),#107,
'DISTANCE_ACCURACY_VALUE','Maximum Tolerance applied to model');
#105=(
NAMED_UNIT(*)
SI_UNIT($,.STERADIAN.)
SOLID_ANGLE_UNIT()
);
#106=(
NAMED_UNIT(*)
PLANE_ANGLE_UNIT()
SI_UNIT($,.RADIAN.)
);
#107=(
LENGTH_UNIT()
NAMED_UNIT(*)
SI_UNIT(.MILLI.,.METRE.)
);
#108=PRODUCT_DEFINITION_SHAPE('','',#109);
#109=PRODUCT_DEFINITION('','',#111,#110);
#110=PRODUCT_DEFINITION_CONTEXT('',#117,'design');
#111=PRODUCT_DEFINITION_FORMATION_WITH_SPECIFIED_SOURCE('','',#113,
 .NOT_KNOWN.);
#112=PRODUCT_RELATED_PRODUCT_CATEGORY('','',(#113));
#113=PRODUCT('SN 8040 TES 230V','SN 8040 TES 230V','SN 8040 TES 230V',(#115));
#114=PRODUCT_CATEGORY('','');
#115=PRODUCT_CONTEXT('',#117,'mechanical');
#116=APPLICATION_PROTOCOL_DEFINITION('international standard',
'automotive_design',2010,#117);
#117=APPLICATION_CONTEXT(
'core data for automotive mechanical design processes');
ENDSEC;
END-ISO-10303-21;
