ISO-10303-21;
HEADER;
/* Generated by software containing ST-Developer
 * from STEP Tools, Inc. (www.steptools.com) 
 */
/* OPTION: strings as raw bytes, not using required /X/ escapes */

FILE_DESCRIPTION(
/* description */ ('Unknown'),
/* implementation_level */ '2;1');

FILE_NAME(
/* name */ 'SN 8400 AHB RD',
/* time_stamp */ '2021-02-09T13:30:11+01:00',
/* author */ ('Unknown'),
/* organization */ ('Unknown'),
/* preprocessor_version */ 'ST-DEVELOPER v16.7',
/* originating_system */ 'Solid Edge',
/* authorisation */ 'Unknown');

FILE_SCHEMA (('AUTOMOTIVE_DESIGN {1 0 10303 214 3 1 1}'));
ENDSEC;

DATA;
#10=PROPERTY_DEFINITION_REPRESENTATION(#14,#12);
#11=PROPERTY_DEFINITION_REPRESENTATION(#15,#13);
#12=REPRESENTATION('',(#16),#385);
#13=REPRESENTATION('',(#17),#385);
#14=PROPERTY_DEFINITION('pmi validation property','',#390);
#15=PROPERTY_DEFINITION('pmi validation property','',#390);
#16=VALUE_REPRESENTATION_ITEM('number of annotations',COUNT_MEASURE(0.));
#17=VALUE_REPRESENTATION_ITEM('number of views',COUNT_MEASURE(0.));
#18=SHAPE_REPRESENTATION_RELATIONSHIP('','',#234,#19);
#19=ADVANCED_BREP_SHAPE_REPRESENTATION('',(#232),#385);
#20=CONICAL_SURFACE('',#248,59.,0.785398163397448);
#21=CONICAL_SURFACE('',#249,61.,1.48048849021061);
#22=CONICAL_SURFACE('',#257,16.75,1.48048849021061);
#23=CYLINDRICAL_SURFACE('',#240,65.);
#24=CYLINDRICAL_SURFACE('',#245,58.75);
#25=CIRCLE('',#237,61.);
#26=CIRCLE('',#238,61.);
#27=CIRCLE('',#239,65.);
#28=CIRCLE('',#241,65.);
#29=CIRCLE('',#243,59.);
#30=CIRCLE('',#244,58.75);
#31=CIRCLE('',#246,58.75);
#32=CIRCLE('',#250,16.75);
#33=CIRCLE('',#256,16.75);
#34=ORIENTED_EDGE('',*,*,#84,.T.);
#35=ORIENTED_EDGE('',*,*,#85,.F.);
#36=ORIENTED_EDGE('',*,*,#86,.T.);
#37=ORIENTED_EDGE('',*,*,#87,.T.);
#38=ORIENTED_EDGE('',*,*,#88,.T.);
#39=ORIENTED_EDGE('',*,*,#89,.T.);
#40=ORIENTED_EDGE('',*,*,#90,.F.);
#41=ORIENTED_EDGE('',*,*,#91,.F.);
#42=ORIENTED_EDGE('',*,*,#92,.F.);
#43=ORIENTED_EDGE('',*,*,#93,.T.);
#44=ORIENTED_EDGE('',*,*,#92,.T.);
#45=ORIENTED_EDGE('',*,*,#94,.T.);
#46=ORIENTED_EDGE('',*,*,#95,.T.);
#47=ORIENTED_EDGE('',*,*,#96,.T.);
#48=ORIENTED_EDGE('',*,*,#95,.F.);
#49=ORIENTED_EDGE('',*,*,#96,.F.);
#50=ORIENTED_EDGE('',*,*,#93,.F.);
#51=ORIENTED_EDGE('',*,*,#94,.F.);
#52=ORIENTED_EDGE('',*,*,#97,.F.);
#53=ORIENTED_EDGE('',*,*,#98,.F.);
#54=ORIENTED_EDGE('',*,*,#90,.T.);
#55=ORIENTED_EDGE('',*,*,#99,.T.);
#56=ORIENTED_EDGE('',*,*,#91,.T.);
#57=ORIENTED_EDGE('',*,*,#98,.T.);
#58=ORIENTED_EDGE('',*,*,#100,.T.);
#59=ORIENTED_EDGE('',*,*,#89,.F.);
#60=ORIENTED_EDGE('',*,*,#101,.F.);
#61=ORIENTED_EDGE('',*,*,#99,.F.);
#62=ORIENTED_EDGE('',*,*,#84,.F.);
#63=ORIENTED_EDGE('',*,*,#100,.F.);
#64=ORIENTED_EDGE('',*,*,#102,.T.);
#65=ORIENTED_EDGE('',*,*,#103,.F.);
#66=ORIENTED_EDGE('',*,*,#88,.F.);
#67=ORIENTED_EDGE('',*,*,#104,.T.);
#68=ORIENTED_EDGE('',*,*,#105,.T.);
#69=ORIENTED_EDGE('',*,*,#101,.T.);
#70=ORIENTED_EDGE('',*,*,#97,.T.);
#71=ORIENTED_EDGE('',*,*,#105,.F.);
#72=ORIENTED_EDGE('',*,*,#106,.F.);
#73=ORIENTED_EDGE('',*,*,#102,.F.);
#74=ORIENTED_EDGE('',*,*,#86,.F.);
#75=ORIENTED_EDGE('',*,*,#107,.F.);
#76=ORIENTED_EDGE('',*,*,#106,.T.);
#77=ORIENTED_EDGE('',*,*,#108,.T.);
#78=ORIENTED_EDGE('',*,*,#107,.T.);
#79=ORIENTED_EDGE('',*,*,#85,.T.);
#80=ORIENTED_EDGE('',*,*,#103,.T.);
#81=ORIENTED_EDGE('',*,*,#108,.F.);
#82=ORIENTED_EDGE('',*,*,#104,.F.);
#83=ORIENTED_EDGE('',*,*,#87,.F.);
#84=EDGE_CURVE('',#109,#110,#126,.T.);
#85=EDGE_CURVE('',#111,#110,#127,.T.);
#86=EDGE_CURVE('',#111,#112,#25,.T.);
#87=EDGE_CURVE('',#112,#113,#128,.T.);
#88=EDGE_CURVE('',#113,#114,#129,.T.);
#89=EDGE_CURVE('',#114,#115,#130,.T.);
#90=EDGE_CURVE('',#116,#115,#26,.T.);
#91=EDGE_CURVE('',#109,#116,#131,.T.);
#92=EDGE_CURVE('',#117,#117,#27,.T.);
#93=EDGE_CURVE('',#118,#118,#28,.F.);
#94=EDGE_CURVE('',#119,#119,#29,.T.);
#95=EDGE_CURVE('',#120,#120,#30,.T.);
#96=EDGE_CURVE('',#121,#121,#31,.T.);
#97=EDGE_CURVE('',#122,#123,#32,.T.);
#98=EDGE_CURVE('',#116,#122,#132,.T.);
#99=EDGE_CURVE('',#115,#123,#133,.T.);
#100=EDGE_CURVE('',#122,#109,#134,.T.);
#101=EDGE_CURVE('',#123,#114,#135,.T.);
#102=EDGE_CURVE('',#122,#124,#136,.T.);
#103=EDGE_CURVE('',#110,#124,#137,.T.);
#104=EDGE_CURVE('',#113,#125,#138,.T.);
#105=EDGE_CURVE('',#125,#123,#139,.T.);
#106=EDGE_CURVE('',#124,#125,#33,.T.);
#107=EDGE_CURVE('',#124,#111,#140,.T.);
#108=EDGE_CURVE('',#125,#112,#141,.T.);
#109=VERTEX_POINT('',#329);
#110=VERTEX_POINT('',#330);
#111=VERTEX_POINT('',#332);
#112=VERTEX_POINT('',#334);
#113=VERTEX_POINT('',#336);
#114=VERTEX_POINT('',#338);
#115=VERTEX_POINT('',#340);
#116=VERTEX_POINT('',#342);
#117=VERTEX_POINT('',#345);
#118=VERTEX_POINT('',#348);
#119=VERTEX_POINT('',#351);
#120=VERTEX_POINT('',#353);
#121=VERTEX_POINT('',#356);
#122=VERTEX_POINT('',#361);
#123=VERTEX_POINT('',#362);
#124=VERTEX_POINT('',#371);
#125=VERTEX_POINT('',#375);
#126=LINE('',#328,#142);
#127=LINE('',#331,#143);
#128=LINE('',#335,#144);
#129=LINE('',#337,#145);
#130=LINE('',#339,#146);
#131=LINE('',#343,#147);
#132=LINE('',#363,#148);
#133=LINE('',#364,#149);
#134=LINE('',#366,#150);
#135=LINE('',#368,#151);
#136=LINE('',#370,#152);
#137=LINE('',#372,#153);
#138=LINE('',#374,#154);
#139=LINE('',#376,#155);
#140=LINE('',#380,#156);
#141=LINE('',#381,#157);
#142=VECTOR('',#264,1000.);
#143=VECTOR('',#265,1000.);
#144=VECTOR('',#268,1000.);
#145=VECTOR('',#269,1000.);
#146=VECTOR('',#270,1000.);
#147=VECTOR('',#273,1000.);
#148=VECTOR('',#298,1000.);
#149=VECTOR('',#299,1000.);
#150=VECTOR('',#302,1000.);
#151=VECTOR('',#305,1000.);
#152=VECTOR('',#308,1000.);
#153=VECTOR('',#309,1000.);
#154=VECTOR('',#312,1000.);
#155=VECTOR('',#313,1000.);
#156=VECTOR('',#320,1000.);
#157=VECTOR('',#321,1000.);
#158=EDGE_LOOP('',(#34,#35,#36,#37,#38,#39,#40,#41));
#159=EDGE_LOOP('',(#42));
#160=EDGE_LOOP('',(#43));
#161=EDGE_LOOP('',(#44));
#162=EDGE_LOOP('',(#45));
#163=EDGE_LOOP('',(#46));
#164=EDGE_LOOP('',(#47));
#165=EDGE_LOOP('',(#48));
#166=EDGE_LOOP('',(#49));
#167=EDGE_LOOP('',(#50));
#168=EDGE_LOOP('',(#51));
#169=EDGE_LOOP('',(#52,#53,#54,#55));
#170=EDGE_LOOP('',(#56,#57,#58));
#171=EDGE_LOOP('',(#59,#60,#61));
#172=EDGE_LOOP('',(#62,#63,#64,#65));
#173=EDGE_LOOP('',(#66,#67,#68,#69));
#174=EDGE_LOOP('',(#70,#71,#72,#73));
#175=EDGE_LOOP('',(#74,#75,#76,#77));
#176=EDGE_LOOP('',(#78,#79,#80));
#177=EDGE_LOOP('',(#81,#82,#83));
#178=FACE_BOUND('',#158,.T.);
#179=FACE_BOUND('',#159,.T.);
#180=FACE_BOUND('',#160,.T.);
#181=FACE_BOUND('',#161,.T.);
#182=FACE_BOUND('',#162,.T.);
#183=FACE_BOUND('',#163,.T.);
#184=FACE_BOUND('',#164,.T.);
#185=FACE_BOUND('',#165,.T.);
#186=FACE_BOUND('',#166,.T.);
#187=FACE_BOUND('',#167,.T.);
#188=FACE_BOUND('',#168,.T.);
#189=FACE_BOUND('',#169,.T.);
#190=FACE_BOUND('',#170,.T.);
#191=FACE_BOUND('',#171,.T.);
#192=FACE_BOUND('',#172,.T.);
#193=FACE_BOUND('',#173,.T.);
#194=FACE_BOUND('',#174,.T.);
#195=FACE_BOUND('',#175,.T.);
#196=FACE_BOUND('',#176,.T.);
#197=FACE_BOUND('',#177,.T.);
#198=PLANE('',#236);
#199=PLANE('',#242);
#200=PLANE('',#247);
#201=PLANE('',#251);
#202=PLANE('',#252);
#203=PLANE('',#253);
#204=PLANE('',#254);
#205=PLANE('',#255);
#206=PLANE('',#258);
#207=PLANE('',#259);
#208=ADVANCED_FACE('',(#178,#179),#198,.F.);
#209=ADVANCED_FACE('',(#180,#181),#23,.T.);
#210=ADVANCED_FACE('',(#182,#183),#199,.T.);
#211=ADVANCED_FACE('',(#184,#185),#24,.T.);
#212=ADVANCED_FACE('',(#186),#200,.F.);
#213=ADVANCED_FACE('',(#187,#188),#20,.T.);
#214=ADVANCED_FACE('',(#189),#21,.F.);
#215=ADVANCED_FACE('',(#190),#201,.F.);
#216=ADVANCED_FACE('',(#191),#202,.T.);
#217=ADVANCED_FACE('',(#192),#203,.T.);
#218=ADVANCED_FACE('',(#193),#204,.T.);
#219=ADVANCED_FACE('',(#194),#205,.F.);
#220=ADVANCED_FACE('',(#195),#22,.F.);
#221=ADVANCED_FACE('',(#196),#206,.F.);
#222=ADVANCED_FACE('',(#197),#207,.T.);
#223=CLOSED_SHELL('',(#208,#209,#210,#211,#212,#213,#214,#215,#216,#217,
#218,#219,#220,#221,#222));
#224=STYLED_ITEM('',(#225),#232);
#225=PRESENTATION_STYLE_ASSIGNMENT((#226));
#226=SURFACE_STYLE_USAGE(.BOTH.,#227);
#227=SURFACE_SIDE_STYLE('',(#228));
#228=SURFACE_STYLE_FILL_AREA(#229);
#229=FILL_AREA_STYLE('',(#230));
#230=FILL_AREA_STYLE_COLOUR('',#231);
#231=COLOUR_RGB('',0.645180702209473,0.678915679454803,0.699999988079071);
#232=MANIFOLD_SOLID_BREP('',#223);
#233=SHAPE_DEFINITION_REPRESENTATION(#390,#234);
#234=SHAPE_REPRESENTATION('SN 8400 ALB RD',(#235),#385);
#235=AXIS2_PLACEMENT_3D('',#326,#260,#261);
#236=AXIS2_PLACEMENT_3D('',#327,#262,#263);
#237=AXIS2_PLACEMENT_3D('',#333,#266,#267);
#238=AXIS2_PLACEMENT_3D('',#341,#271,#272);
#239=AXIS2_PLACEMENT_3D('',#344,#274,#275);
#240=AXIS2_PLACEMENT_3D('',#346,#276,#277);
#241=AXIS2_PLACEMENT_3D('',#347,#278,#279);
#242=AXIS2_PLACEMENT_3D('',#349,#280,#281);
#243=AXIS2_PLACEMENT_3D('',#350,#282,#283);
#244=AXIS2_PLACEMENT_3D('',#352,#284,#285);
#245=AXIS2_PLACEMENT_3D('',#354,#286,#287);
#246=AXIS2_PLACEMENT_3D('',#355,#288,#289);
#247=AXIS2_PLACEMENT_3D('',#357,#290,#291);
#248=AXIS2_PLACEMENT_3D('',#358,#292,#293);
#249=AXIS2_PLACEMENT_3D('',#359,#294,#295);
#250=AXIS2_PLACEMENT_3D('',#360,#296,#297);
#251=AXIS2_PLACEMENT_3D('',#365,#300,#301);
#252=AXIS2_PLACEMENT_3D('',#367,#303,#304);
#253=AXIS2_PLACEMENT_3D('',#369,#306,#307);
#254=AXIS2_PLACEMENT_3D('',#373,#310,#311);
#255=AXIS2_PLACEMENT_3D('',#377,#314,#315);
#256=AXIS2_PLACEMENT_3D('',#378,#316,#317);
#257=AXIS2_PLACEMENT_3D('',#379,#318,#319);
#258=AXIS2_PLACEMENT_3D('',#382,#322,#323);
#259=AXIS2_PLACEMENT_3D('',#383,#324,#325);
#260=DIRECTION('',(0.,0.,1.));
#261=DIRECTION('',(1.,0.,0.));
#262=DIRECTION('',(0.,0.,-1.));
#263=DIRECTION('',(-1.,0.,0.));
#264=DIRECTION('',(1.37225740032029E-16,-1.,0.));
#265=DIRECTION('',(-0.656059028990507,0.754709580222772,0.));
#266=DIRECTION('',(0.,0.,-1.));
#267=DIRECTION('',(-1.,0.,0.));
#268=DIRECTION('',(0.656059028990507,0.754709580222772,0.));
#269=DIRECTION('',(-2.74451480064058E-16,1.,0.));
#270=DIRECTION('',(-0.656059028990507,0.754709580222772,0.));
#271=DIRECTION('',(0.,0.,1.));
#272=DIRECTION('',(1.,0.,0.));
#273=DIRECTION('',(0.656059028990507,0.754709580222772,0.));
#274=DIRECTION('',(0.,0.,-1.));
#275=DIRECTION('',(1.,0.,0.));
#276=DIRECTION('',(0.,0.,-1.));
#277=DIRECTION('',(-1.,0.,0.));
#278=DIRECTION('',(0.,0.,-1.));
#279=DIRECTION('',(-1.,0.,0.));
#280=DIRECTION('',(0.,0.,-1.));
#281=DIRECTION('',(-1.,0.,0.));
#282=DIRECTION('',(0.,0.,-1.));
#283=DIRECTION('',(-1.,0.,0.));
#284=DIRECTION('',(0.,0.,1.));
#285=DIRECTION('',(0.,1.,0.));
#286=DIRECTION('',(0.,0.,1.));
#287=DIRECTION('',(1.,0.,0.));
#288=DIRECTION('',(0.,0.,1.));
#289=DIRECTION('',(0.,1.,0.));
#290=DIRECTION('',(0.,0.,1.));
#291=DIRECTION('',(1.,0.,0.));
#292=DIRECTION('',(0.,0.,1.));
#293=DIRECTION('',(1.,0.,0.));
#294=DIRECTION('',(0.,0.,1.));
#295=DIRECTION('',(1.,0.,0.));
#296=DIRECTION('',(0.,0.,1.));
#297=DIRECTION('',(1.,0.,0.));
#298=DIRECTION('',(-0.653385600201935,-0.751634152205444,-0.0901851356220137));
#299=DIRECTION('',(0.653385600201935,-0.751634152205444,-0.0901851356220137));
#300=DIRECTION('',(0.754709580222772,-0.656059028990507,0.));
#301=DIRECTION('',(0.656059028990507,0.754709580222772,0.));
#302=DIRECTION('',(0.,0.,1.));
#303=DIRECTION('',(0.754709580222772,0.656059028990507,0.));
#304=DIRECTION('',(-0.656059028990507,0.754709580222772,0.));
#305=DIRECTION('',(0.,0.,1.));
#306=DIRECTION('',(-1.,-1.37225740032029E-16,0.));
#307=DIRECTION('',(1.37225740032029E-16,-1.,0.));
#308=DIRECTION('',(1.37225740032029E-16,-1.,0.));
#309=DIRECTION('',(0.,0.,-1.));
#310=DIRECTION('',(1.,2.74451480064058E-16,0.));
#311=DIRECTION('',(-2.74451480064058E-16,1.,0.));
#312=DIRECTION('',(0.,0.,-1.));
#313=DIRECTION('',(-2.74451480064058E-16,1.,0.));
#314=DIRECTION('',(0.,0.,-1.));
#315=DIRECTION('',(-1.,0.,0.));
#316=DIRECTION('',(0.,0.,-1.));
#317=DIRECTION('',(-1.,0.,0.));
#318=DIRECTION('',(0.,0.,1.));
#319=DIRECTION('',(1.,0.,0.));
#320=DIRECTION('',(0.653385600201935,-0.751634152205444,0.0901851356220137));
#321=DIRECTION('',(-0.653385600201935,-0.751634152205444,0.0901851356220137));
#322=DIRECTION('',(0.754709580222772,0.656059028990507,0.));
#323=DIRECTION('',(-0.656059028990507,0.754709580222772,0.));
#324=DIRECTION('',(0.754709580222772,-0.656059028990507,0.));
#325=DIRECTION('',(0.656059028990507,0.754709580222772,0.));
#326=CARTESIAN_POINT('',(0.,0.,0.));
#327=CARTESIAN_POINT('',(0.,0.,43.77));
#328=CARTESIAN_POINT('',(10.988988735591,2.65629532258949E-15,43.77));
#329=CARTESIAN_POINT('',(10.988988735591,12.6413854687314,43.77));
#330=CARTESIAN_POINT('',(10.988988735591,-12.6413854687314,43.77));
#331=CARTESIAN_POINT('',(40.0196007684209,-46.0372843935891,43.77));
#332=CARTESIAN_POINT('',(40.0196007684209,-46.0372843935891,43.77));
#333=CARTESIAN_POINT('',(0.,0.,43.77));
#334=CARTESIAN_POINT('',(-40.0196007684209,-46.0372843935891,43.77));
#335=CARTESIAN_POINT('',(-40.0196007684209,-46.0372843935891,43.77));
#336=CARTESIAN_POINT('',(-10.988988735591,-12.6413854687314,43.77));
#337=CARTESIAN_POINT('',(-10.988988735591,12.6413854687314,43.77));
#338=CARTESIAN_POINT('',(-10.988988735591,12.6413854687314,43.77));
#339=CARTESIAN_POINT('',(-10.988988735591,12.6413854687314,43.77));
#340=CARTESIAN_POINT('',(-40.0196007684209,46.0372843935891,43.77));
#341=CARTESIAN_POINT('',(0.,0.,43.77));
#342=CARTESIAN_POINT('',(40.0196007684209,46.0372843935891,43.77));
#343=CARTESIAN_POINT('',(10.988988735591,12.6413854687314,43.77));
#344=CARTESIAN_POINT('',(0.,0.,43.77));
#345=CARTESIAN_POINT('',(65.,0.,43.77));
#346=CARTESIAN_POINT('',(0.,0.,43.77));
#347=CARTESIAN_POINT('',(0.,0.,6.00000000000001));
#348=CARTESIAN_POINT('',(-65.,0.,6.00000000000001));
#349=CARTESIAN_POINT('',(0.,0.,0.));
#350=CARTESIAN_POINT('',(0.,0.,0.));
#351=CARTESIAN_POINT('',(-59.,0.,0.));
#352=CARTESIAN_POINT('',(0.,0.,0.));
#353=CARTESIAN_POINT('',(0.,58.75,0.));
#354=CARTESIAN_POINT('',(0.,0.,-10.));
#355=CARTESIAN_POINT('',(0.,0.,-10.));
#356=CARTESIAN_POINT('',(0.,58.75,-10.));
#357=CARTESIAN_POINT('',(0.,0.,-10.));
#358=CARTESIAN_POINT('',(0.,0.,0.));
#359=CARTESIAN_POINT('',(0.,0.,43.77));
#360=CARTESIAN_POINT('',(0.,0.,39.7629792108034));
#361=CARTESIAN_POINT('',(10.988988735591,12.6413854687314,39.7629792108034));
#362=CARTESIAN_POINT('',(-10.988988735591,12.6413854687314,39.7629792108034));
#363=CARTESIAN_POINT('',(40.0196007684209,46.0372843935891,43.77));
#364=CARTESIAN_POINT('',(-40.0196007684209,46.0372843935891,43.77));
#365=CARTESIAN_POINT('',(0.,0.,0.));
#366=CARTESIAN_POINT('',(10.988988735591,12.6413854687314,39.7629792108034));
#367=CARTESIAN_POINT('',(0.,0.,0.));
#368=CARTESIAN_POINT('',(-10.988988735591,12.6413854687314,39.7629792108034));
#369=CARTESIAN_POINT('',(10.988988735591,2.65629532258949E-15,39.7629792108034));
#370=CARTESIAN_POINT('',(10.988988735591,2.65629532258949E-15,39.7629792108034));
#371=CARTESIAN_POINT('',(10.988988735591,-12.6413854687314,39.7629792108034));
#372=CARTESIAN_POINT('',(10.988988735591,-12.6413854687314,43.77));
#373=CARTESIAN_POINT('',(-10.988988735591,12.6413854687314,39.7629792108034));
#374=CARTESIAN_POINT('',(-10.988988735591,-12.6413854687314,43.77));
#375=CARTESIAN_POINT('',(-10.988988735591,-12.6413854687314,39.7629792108034));
#376=CARTESIAN_POINT('',(-10.988988735591,12.6413854687314,39.7629792108034));
#377=CARTESIAN_POINT('',(2.60208521396521E-15,-2.08166817117217E-14,39.7629792108034));
#378=CARTESIAN_POINT('',(0.,0.,39.7629792108034));
#379=CARTESIAN_POINT('',(0.,0.,39.7629792108034));
#380=CARTESIAN_POINT('',(10.988988735591,-12.6413854687314,39.7629792108034));
#381=CARTESIAN_POINT('',(-10.988988735591,-12.6413854687314,39.7629792108034));
#382=CARTESIAN_POINT('',(0.,0.,0.));
#383=CARTESIAN_POINT('',(0.,0.,0.));
#384=MECHANICAL_DESIGN_GEOMETRIC_PRESENTATION_REPRESENTATION('',(#224),
#385);
#385=(
GEOMETRIC_REPRESENTATION_CONTEXT(3)
GLOBAL_UNCERTAINTY_ASSIGNED_CONTEXT((#386))
GLOBAL_UNIT_ASSIGNED_CONTEXT((#389,#388,#387))
REPRESENTATION_CONTEXT('SN 8400 ALB RD','TOP_LEVEL_ASSEMBLY_PART')
);
#386=UNCERTAINTY_MEASURE_WITH_UNIT(LENGTH_MEASURE(0.005),#389,
'DISTANCE_ACCURACY_VALUE','Maximum Tolerance applied to model');
#387=(
NAMED_UNIT(*)
SI_UNIT($,.STERADIAN.)
SOLID_ANGLE_UNIT()
);
#388=(
NAMED_UNIT(*)
PLANE_ANGLE_UNIT()
SI_UNIT($,.RADIAN.)
);
#389=(
LENGTH_UNIT()
NAMED_UNIT(*)
SI_UNIT(.MILLI.,.METRE.)
);
#390=PRODUCT_DEFINITION_SHAPE('','',#391);
#391=PRODUCT_DEFINITION('','',#393,#392);
#392=PRODUCT_DEFINITION_CONTEXT('',#399,'design');
#393=PRODUCT_DEFINITION_FORMATION_WITH_SPECIFIED_SOURCE('','',#395,
 .NOT_KNOWN.);
#394=PRODUCT_RELATED_PRODUCT_CATEGORY('','',(#395));
#395=PRODUCT('SN 8400 ALB RD','SN 8400 ALB RD','SN 8400 ALB RD',(#397));
#396=PRODUCT_CATEGORY('','');
#397=PRODUCT_CONTEXT('',#399,'mechanical');
#398=APPLICATION_PROTOCOL_DEFINITION('international standard',
'automotive_design',2010,#399);
#399=APPLICATION_CONTEXT(
'core data for automotive mechanical design processes');
ENDSEC;
END-ISO-10303-21;
