ISO-10303-21;
HEADER;
/* Generated by software containing ST-Developer
 * from STEP Tools, Inc. (www.steptools.com) 
 */
/* OPTION: strings as raw bytes, not using required /X/ escapes */

FILE_DESCRIPTION(
/* description */ ('Unknown'),
/* implementation_level */ '2;1');

FILE_NAME(
/* name */ 'SN 8424 RD',
/* time_stamp */ '2018-09-25T11:49:44+02:00',
/* author */ ('Unknown'),
/* organization */ ('Unknown'),
/* preprocessor_version */ 'ST-DEVELOPER v16.7',
/* originating_system */ 'DEX',
/* authorisation */ $);

FILE_SCHEMA (('AUTOMOTIVE_DESIGN {1 0 10303 214 3 1 1}'));
ENDSEC;

DATA;
#10=PROPERTY_DEFINITION_REPRESENTATION(#14,#12);
#11=PROPERTY_DEFINITION_REPRESENTATION(#15,#13);
#12=REPRESENTATION('',(#16),#465);
#13=REPRESENTATION('',(#17),#465);
#14=PROPERTY_DEFINITION('pmi validation property','',#470);
#15=PROPERTY_DEFINITION('pmi validation property','',#470);
#16=VALUE_REPRESENTATION_ITEM('number of annotations',COUNT_MEASURE(0.));
#17=VALUE_REPRESENTATION_ITEM('number of views',COUNT_MEASURE(0.));
#18=SHAPE_REPRESENTATION_RELATIONSHIP('','',#276,#19);
#19=ADVANCED_BREP_SHAPE_REPRESENTATION('',(#274),#465);
#20=TOROIDAL_SURFACE('',#293,35.9087552290697,1.5);
#21=TOROIDAL_SURFACE('',#294,23.5,1.5);
#22=TOROIDAL_SURFACE('',#296,26.2495454169735,1.5);
#23=LINE('',#411,#39);
#24=LINE('',#415,#40);
#25=LINE('',#419,#41);
#26=LINE('',#423,#42);
#27=LINE('',#432,#43);
#28=LINE('',#434,#44);
#29=LINE('',#436,#45);
#30=LINE('',#438,#46);
#31=LINE('',#442,#47);
#32=LINE('',#444,#48);
#33=LINE('',#446,#49);
#34=LINE('',#450,#50);
#35=LINE('',#452,#51);
#36=LINE('',#454,#52);
#37=LINE('',#458,#53);
#38=LINE('',#460,#54);
#39=VECTOR('',#334,1000.);
#40=VECTOR('',#337,1000.);
#41=VECTOR('',#340,1000.);
#42=VECTOR('',#343,1000.);
#43=VECTOR('',#356,1000.);
#44=VECTOR('',#357,1000.);
#45=VECTOR('',#358,1000.);
#46=VECTOR('',#361,1000.);
#47=VECTOR('',#366,1000.);
#48=VECTOR('',#367,1000.);
#49=VECTOR('',#370,1000.);
#50=VECTOR('',#375,1000.);
#51=VECTOR('',#376,1000.);
#52=VECTOR('',#379,1000.);
#53=VECTOR('',#384,1000.);
#54=VECTOR('',#385,1000.);
#55=CYLINDRICAL_SURFACE('',#286,44.);
#56=CYLINDRICAL_SURFACE('',#298,9.1);
#57=CYLINDRICAL_SURFACE('',#301,9.1);
#58=CYLINDRICAL_SURFACE('',#304,9.1);
#59=CYLINDRICAL_SURFACE('',#307,9.1);
#60=PLANE('',#281);
#61=PLANE('',#284);
#62=PLANE('',#287);
#63=PLANE('',#297);
#64=PLANE('',#300);
#65=PLANE('',#303);
#66=PLANE('',#306);
#67=PLANE('',#309);
#68=ORIENTED_EDGE('',*,*,#130,.T.);
#69=ORIENTED_EDGE('',*,*,#131,.T.);
#70=ORIENTED_EDGE('',*,*,#132,.T.);
#71=ORIENTED_EDGE('',*,*,#133,.T.);
#72=ORIENTED_EDGE('',*,*,#134,.F.);
#73=ORIENTED_EDGE('',*,*,#131,.F.);
#74=ORIENTED_EDGE('',*,*,#134,.T.);
#75=ORIENTED_EDGE('',*,*,#135,.F.);
#76=ORIENTED_EDGE('',*,*,#136,.F.);
#77=ORIENTED_EDGE('',*,*,#137,.F.);
#78=ORIENTED_EDGE('',*,*,#138,.F.);
#79=ORIENTED_EDGE('',*,*,#139,.F.);
#80=ORIENTED_EDGE('',*,*,#140,.F.);
#81=ORIENTED_EDGE('',*,*,#141,.F.);
#82=ORIENTED_EDGE('',*,*,#142,.F.);
#83=ORIENTED_EDGE('',*,*,#143,.T.);
#84=ORIENTED_EDGE('',*,*,#130,.F.);
#85=ORIENTED_EDGE('',*,*,#133,.F.);
#86=ORIENTED_EDGE('',*,*,#144,.T.);
#87=ORIENTED_EDGE('',*,*,#143,.F.);
#88=ORIENTED_EDGE('',*,*,#144,.F.);
#89=ORIENTED_EDGE('',*,*,#132,.F.);
#90=ORIENTED_EDGE('',*,*,#136,.T.);
#91=ORIENTED_EDGE('',*,*,#145,.F.);
#92=ORIENTED_EDGE('',*,*,#146,.F.);
#93=ORIENTED_EDGE('',*,*,#147,.T.);
#94=ORIENTED_EDGE('',*,*,#135,.T.);
#95=ORIENTED_EDGE('',*,*,#148,.F.);
#96=ORIENTED_EDGE('',*,*,#149,.F.);
#97=ORIENTED_EDGE('',*,*,#145,.T.);
#98=ORIENTED_EDGE('',*,*,#142,.T.);
#99=ORIENTED_EDGE('',*,*,#150,.F.);
#100=ORIENTED_EDGE('',*,*,#151,.F.);
#101=ORIENTED_EDGE('',*,*,#148,.T.);
#102=ORIENTED_EDGE('',*,*,#141,.T.);
#103=ORIENTED_EDGE('',*,*,#152,.F.);
#104=ORIENTED_EDGE('',*,*,#153,.F.);
#105=ORIENTED_EDGE('',*,*,#150,.T.);
#106=ORIENTED_EDGE('',*,*,#140,.T.);
#107=ORIENTED_EDGE('',*,*,#154,.F.);
#108=ORIENTED_EDGE('',*,*,#155,.F.);
#109=ORIENTED_EDGE('',*,*,#152,.T.);
#110=ORIENTED_EDGE('',*,*,#139,.T.);
#111=ORIENTED_EDGE('',*,*,#156,.F.);
#112=ORIENTED_EDGE('',*,*,#157,.F.);
#113=ORIENTED_EDGE('',*,*,#154,.T.);
#114=ORIENTED_EDGE('',*,*,#138,.T.);
#115=ORIENTED_EDGE('',*,*,#158,.F.);
#116=ORIENTED_EDGE('',*,*,#159,.F.);
#117=ORIENTED_EDGE('',*,*,#156,.T.);
#118=ORIENTED_EDGE('',*,*,#137,.T.);
#119=ORIENTED_EDGE('',*,*,#147,.F.);
#120=ORIENTED_EDGE('',*,*,#160,.F.);
#121=ORIENTED_EDGE('',*,*,#158,.T.);
#122=ORIENTED_EDGE('',*,*,#146,.T.);
#123=ORIENTED_EDGE('',*,*,#149,.T.);
#124=ORIENTED_EDGE('',*,*,#151,.T.);
#125=ORIENTED_EDGE('',*,*,#153,.T.);
#126=ORIENTED_EDGE('',*,*,#155,.T.);
#127=ORIENTED_EDGE('',*,*,#157,.T.);
#128=ORIENTED_EDGE('',*,*,#159,.T.);
#129=ORIENTED_EDGE('',*,*,#160,.T.);
#130=EDGE_CURVE('',#161,#161,#184,.F.);
#131=EDGE_CURVE('',#162,#162,#185,.T.);
#132=EDGE_CURVE('',#163,#163,#186,.T.);
#133=EDGE_CURVE('',#164,#164,#187,.F.);
#134=EDGE_CURVE('',#165,#165,#188,.T.);
#135=EDGE_CURVE('',#166,#167,#189,.T.);
#136=EDGE_CURVE('',#168,#166,#23,.T.);
#137=EDGE_CURVE('',#169,#168,#190,.T.);
#138=EDGE_CURVE('',#170,#169,#24,.T.);
#139=EDGE_CURVE('',#171,#170,#191,.T.);
#140=EDGE_CURVE('',#172,#171,#25,.T.);
#141=EDGE_CURVE('',#173,#172,#192,.T.);
#142=EDGE_CURVE('',#167,#173,#26,.T.);
#143=EDGE_CURVE('',#174,#174,#193,.F.);
#144=EDGE_CURVE('',#175,#175,#194,.T.);
#145=EDGE_CURVE('',#176,#166,#27,.T.);
#146=EDGE_CURVE('',#177,#176,#28,.T.);
#147=EDGE_CURVE('',#177,#168,#29,.T.);
#148=EDGE_CURVE('',#178,#167,#30,.T.);
#149=EDGE_CURVE('',#176,#178,#195,.T.);
#150=EDGE_CURVE('',#179,#173,#31,.T.);
#151=EDGE_CURVE('',#178,#179,#32,.T.);
#152=EDGE_CURVE('',#180,#172,#33,.T.);
#153=EDGE_CURVE('',#179,#180,#196,.T.);
#154=EDGE_CURVE('',#181,#171,#34,.T.);
#155=EDGE_CURVE('',#180,#181,#35,.T.);
#156=EDGE_CURVE('',#182,#170,#36,.T.);
#157=EDGE_CURVE('',#181,#182,#197,.T.);
#158=EDGE_CURVE('',#183,#169,#37,.T.);
#159=EDGE_CURVE('',#182,#183,#38,.T.);
#160=EDGE_CURVE('',#183,#177,#198,.T.);
#161=VERTEX_POINT('',#395);
#162=VERTEX_POINT('',#397);
#163=VERTEX_POINT('',#400);
#164=VERTEX_POINT('',#402);
#165=VERTEX_POINT('',#405);
#166=VERTEX_POINT('',#409);
#167=VERTEX_POINT('',#410);
#168=VERTEX_POINT('',#412);
#169=VERTEX_POINT('',#414);
#170=VERTEX_POINT('',#416);
#171=VERTEX_POINT('',#418);
#172=VERTEX_POINT('',#420);
#173=VERTEX_POINT('',#422);
#174=VERTEX_POINT('',#425);
#175=VERTEX_POINT('',#429);
#176=VERTEX_POINT('',#433);
#177=VERTEX_POINT('',#435);
#178=VERTEX_POINT('',#439);
#179=VERTEX_POINT('',#443);
#180=VERTEX_POINT('',#447);
#181=VERTEX_POINT('',#451);
#182=VERTEX_POINT('',#455);
#183=VERTEX_POINT('',#459);
#184=CIRCLE('',#279,36.9322326046097);
#185=CIRCLE('',#280,44.);
#186=CIRCLE('',#282,26.2495454169735);
#187=CIRCLE('',#283,35.9087552290697);
#188=CIRCLE('',#285,44.);
#189=CIRCLE('',#288,9.1);
#190=CIRCLE('',#289,9.1);
#191=CIRCLE('',#290,9.1);
#192=CIRCLE('',#291,9.1);
#193=CIRCLE('',#292,23.5);
#194=CIRCLE('',#295,24.8747727084868);
#195=CIRCLE('',#299,9.1);
#196=CIRCLE('',#302,9.1);
#197=CIRCLE('',#305,9.1);
#198=CIRCLE('',#308,9.1);
#199=EDGE_LOOP('',(#68));
#200=EDGE_LOOP('',(#69));
#201=EDGE_LOOP('',(#70));
#202=EDGE_LOOP('',(#71));
#203=EDGE_LOOP('',(#72));
#204=EDGE_LOOP('',(#73));
#205=EDGE_LOOP('',(#74));
#206=EDGE_LOOP('',(#75,#76,#77,#78,#79,#80,#81,#82));
#207=EDGE_LOOP('',(#83));
#208=EDGE_LOOP('',(#84));
#209=EDGE_LOOP('',(#85));
#210=EDGE_LOOP('',(#86));
#211=EDGE_LOOP('',(#87));
#212=EDGE_LOOP('',(#88));
#213=EDGE_LOOP('',(#89));
#214=EDGE_LOOP('',(#90,#91,#92,#93));
#215=EDGE_LOOP('',(#94,#95,#96,#97));
#216=EDGE_LOOP('',(#98,#99,#100,#101));
#217=EDGE_LOOP('',(#102,#103,#104,#105));
#218=EDGE_LOOP('',(#106,#107,#108,#109));
#219=EDGE_LOOP('',(#110,#111,#112,#113));
#220=EDGE_LOOP('',(#114,#115,#116,#117));
#221=EDGE_LOOP('',(#118,#119,#120,#121));
#222=EDGE_LOOP('',(#122,#123,#124,#125,#126,#127,#128,#129));
#223=FACE_BOUND('',#199,.T.);
#224=FACE_BOUND('',#200,.T.);
#225=FACE_BOUND('',#201,.T.);
#226=FACE_BOUND('',#202,.T.);
#227=FACE_BOUND('',#203,.T.);
#228=FACE_BOUND('',#204,.T.);
#229=FACE_BOUND('',#205,.T.);
#230=FACE_BOUND('',#206,.T.);
#231=FACE_BOUND('',#207,.T.);
#232=FACE_BOUND('',#208,.T.);
#233=FACE_BOUND('',#209,.T.);
#234=FACE_BOUND('',#210,.T.);
#235=FACE_BOUND('',#211,.T.);
#236=FACE_BOUND('',#212,.T.);
#237=FACE_BOUND('',#213,.T.);
#238=FACE_BOUND('',#214,.T.);
#239=FACE_BOUND('',#215,.T.);
#240=FACE_BOUND('',#216,.T.);
#241=FACE_BOUND('',#217,.T.);
#242=FACE_BOUND('',#218,.T.);
#243=FACE_BOUND('',#219,.T.);
#244=FACE_BOUND('',#220,.T.);
#245=FACE_BOUND('',#221,.T.);
#246=FACE_BOUND('',#222,.T.);
#247=CONICAL_SURFACE('',#278,44.,0.819867264396955);
#248=ADVANCED_FACE('',(#223,#224),#247,.T.);
#249=ADVANCED_FACE('',(#225,#226),#60,.F.);
#250=ADVANCED_FACE('',(#227),#61,.F.);
#251=ADVANCED_FACE('',(#228,#229),#55,.T.);
#252=ADVANCED_FACE('',(#230,#231),#62,.F.);
#253=ADVANCED_FACE('',(#232,#233),#20,.T.);
#254=ADVANCED_FACE('',(#234,#235),#21,.F.);
#255=ADVANCED_FACE('',(#236,#237),#22,.T.);
#256=ADVANCED_FACE('',(#238),#63,.F.);
#257=ADVANCED_FACE('',(#239),#56,.F.);
#258=ADVANCED_FACE('',(#240),#64,.F.);
#259=ADVANCED_FACE('',(#241),#57,.F.);
#260=ADVANCED_FACE('',(#242),#65,.F.);
#261=ADVANCED_FACE('',(#243),#58,.F.);
#262=ADVANCED_FACE('',(#244),#66,.F.);
#263=ADVANCED_FACE('',(#245),#59,.F.);
#264=ADVANCED_FACE('',(#246),#67,.T.);
#265=CLOSED_SHELL('',(#248,#249,#250,#251,#252,#253,#254,#255,#256,#257,
#258,#259,#260,#261,#262,#263,#264));
#266=STYLED_ITEM('',(#267),#274);
#267=PRESENTATION_STYLE_ASSIGNMENT((#268));
#268=SURFACE_STYLE_USAGE(.BOTH.,#269);
#269=SURFACE_SIDE_STYLE('',(#270));
#270=SURFACE_STYLE_FILL_AREA(#271);
#271=FILL_AREA_STYLE('',(#272));
#272=FILL_AREA_STYLE_COLOUR('',#273);
#273=COLOUR_RGB('',0.645180702209473,0.678915679454803,0.699999988079071);
#274=MANIFOLD_SOLID_BREP('',#265);
#275=SHAPE_DEFINITION_REPRESENTATION(#470,#276);
#276=SHAPE_REPRESENTATION('SN 8424 RD',(#277),#465);
#277=AXIS2_PLACEMENT_3D('',#392,#310,#311);
#278=AXIS2_PLACEMENT_3D('',#393,#312,#313);
#279=AXIS2_PLACEMENT_3D('',#394,#314,#315);
#280=AXIS2_PLACEMENT_3D('',#396,#316,#317);
#281=AXIS2_PLACEMENT_3D('',#398,#318,#319);
#282=AXIS2_PLACEMENT_3D('',#399,#320,#321);
#283=AXIS2_PLACEMENT_3D('',#401,#322,#323);
#284=AXIS2_PLACEMENT_3D('',#403,#324,#325);
#285=AXIS2_PLACEMENT_3D('',#404,#326,#327);
#286=AXIS2_PLACEMENT_3D('',#406,#328,#329);
#287=AXIS2_PLACEMENT_3D('',#407,#330,#331);
#288=AXIS2_PLACEMENT_3D('',#408,#332,#333);
#289=AXIS2_PLACEMENT_3D('',#413,#335,#336);
#290=AXIS2_PLACEMENT_3D('',#417,#338,#339);
#291=AXIS2_PLACEMENT_3D('',#421,#341,#342);
#292=AXIS2_PLACEMENT_3D('',#424,#344,#345);
#293=AXIS2_PLACEMENT_3D('',#426,#346,#347);
#294=AXIS2_PLACEMENT_3D('',#427,#348,#349);
#295=AXIS2_PLACEMENT_3D('',#428,#350,#351);
#296=AXIS2_PLACEMENT_3D('',#430,#352,#353);
#297=AXIS2_PLACEMENT_3D('',#431,#354,#355);
#298=AXIS2_PLACEMENT_3D('',#437,#359,#360);
#299=AXIS2_PLACEMENT_3D('',#440,#362,#363);
#300=AXIS2_PLACEMENT_3D('',#441,#364,#365);
#301=AXIS2_PLACEMENT_3D('',#445,#368,#369);
#302=AXIS2_PLACEMENT_3D('',#448,#371,#372);
#303=AXIS2_PLACEMENT_3D('',#449,#373,#374);
#304=AXIS2_PLACEMENT_3D('',#453,#377,#378);
#305=AXIS2_PLACEMENT_3D('',#456,#380,#381);
#306=AXIS2_PLACEMENT_3D('',#457,#382,#383);
#307=AXIS2_PLACEMENT_3D('',#461,#386,#387);
#308=AXIS2_PLACEMENT_3D('',#462,#388,#389);
#309=AXIS2_PLACEMENT_3D('',#463,#390,#391);
#310=DIRECTION('',(0.,0.,1.));
#311=DIRECTION('',(1.,0.,0.));
#312=DIRECTION('',(0.,0.,-1.));
#313=DIRECTION('',(-1.,0.,0.));
#314=DIRECTION('',(0.,0.,1.));
#315=DIRECTION('',(1.,0.,0.));
#316=DIRECTION('',(0.,0.,1.));
#317=DIRECTION('',(1.,0.,0.));
#318=DIRECTION('',(0.,0.,-1.));
#319=DIRECTION('',(-1.,0.,0.));
#320=DIRECTION('',(0.,0.,-1.));
#321=DIRECTION('',(-1.,0.,0.));
#322=DIRECTION('',(0.,0.,-1.));
#323=DIRECTION('',(-1.,0.,0.));
#324=DIRECTION('',(0.,0.,1.));
#325=DIRECTION('',(1.,0.,0.));
#326=DIRECTION('',(0.,0.,1.));
#327=DIRECTION('',(1.,0.,0.));
#328=DIRECTION('',(0.,0.,1.));
#329=DIRECTION('',(1.,0.,0.));
#330=DIRECTION('',(0.,0.,-1.));
#331=DIRECTION('',(-1.,0.,0.));
#332=DIRECTION('',(0.,0.,1.));
#333=DIRECTION('',(1.,0.,0.));
#334=DIRECTION('',(0.,-1.,0.));
#335=DIRECTION('',(0.,0.,1.));
#336=DIRECTION('',(1.,0.,0.));
#337=DIRECTION('',(-1.,0.,0.));
#338=DIRECTION('',(0.,0.,1.));
#339=DIRECTION('',(1.,0.,0.));
#340=DIRECTION('',(0.,1.,0.));
#341=DIRECTION('',(0.,0.,1.));
#342=DIRECTION('',(-1.,0.,0.));
#343=DIRECTION('',(1.,0.,0.));
#344=DIRECTION('',(0.,0.,-1.));
#345=DIRECTION('',(-1.,0.,0.));
#346=DIRECTION('',(0.,0.,-1.));
#347=DIRECTION('',(-1.,0.,0.));
#348=DIRECTION('',(0.,0.,-1.));
#349=DIRECTION('',(-1.,0.,0.));
#350=DIRECTION('',(0.,0.,1.));
#351=DIRECTION('',(1.,0.,0.));
#352=DIRECTION('',(0.,0.,-1.));
#353=DIRECTION('',(-1.,0.,0.));
#354=DIRECTION('',(-1.,0.,0.));
#355=DIRECTION('',(0.,0.,1.));
#356=DIRECTION('',(0.,0.,1.));
#357=DIRECTION('',(0.,-1.,0.));
#358=DIRECTION('',(0.,0.,1.));
#359=DIRECTION('',(0.,0.,1.));
#360=DIRECTION('',(1.,0.,0.));
#361=DIRECTION('',(0.,0.,1.));
#362=DIRECTION('',(0.,0.,1.));
#363=DIRECTION('',(1.,0.,0.));
#364=DIRECTION('',(0.,-1.,0.));
#365=DIRECTION('',(0.,0.,-1.));
#366=DIRECTION('',(0.,0.,1.));
#367=DIRECTION('',(1.,0.,0.));
#368=DIRECTION('',(0.,0.,1.));
#369=DIRECTION('',(1.,0.,0.));
#370=DIRECTION('',(0.,0.,1.));
#371=DIRECTION('',(0.,0.,1.));
#372=DIRECTION('',(-1.,0.,0.));
#373=DIRECTION('',(1.,0.,0.));
#374=DIRECTION('',(0.,0.,-1.));
#375=DIRECTION('',(0.,0.,1.));
#376=DIRECTION('',(0.,1.,0.));
#377=DIRECTION('',(0.,0.,1.));
#378=DIRECTION('',(1.,0.,0.));
#379=DIRECTION('',(0.,0.,1.));
#380=DIRECTION('',(0.,0.,1.));
#381=DIRECTION('',(1.,0.,0.));
#382=DIRECTION('',(0.,1.,0.));
#383=DIRECTION('',(0.,0.,1.));
#384=DIRECTION('',(0.,0.,1.));
#385=DIRECTION('',(-1.,0.,0.));
#386=DIRECTION('',(0.,0.,1.));
#387=DIRECTION('',(1.,0.,0.));
#388=DIRECTION('',(0.,0.,1.));
#389=DIRECTION('',(1.,0.,0.));
#390=DIRECTION('',(0.,0.,1.));
#391=DIRECTION('',(1.,0.,0.));
#392=CARTESIAN_POINT('',(0.,0.,0.));
#393=CARTESIAN_POINT('',(0.,0.,34.));
#394=CARTESIAN_POINT('',(0.,0.,40.5965829023643));
#395=CARTESIAN_POINT('',(36.9322326046097,0.,40.5965829023643));
#396=CARTESIAN_POINT('',(0.,0.,34.));
#397=CARTESIAN_POINT('',(44.,0.,34.));
#398=CARTESIAN_POINT('',(36.5,0.,41.));
#399=CARTESIAN_POINT('',(0.,0.,41.));
#400=CARTESIAN_POINT('',(-26.2495454169735,0.,41.));
#401=CARTESIAN_POINT('',(0.,0.,41.));
#402=CARTESIAN_POINT('',(-35.9087552290697,0.,41.));
#403=CARTESIAN_POINT('',(0.,0.,0.));
#404=CARTESIAN_POINT('',(0.,0.,0.));
#405=CARTESIAN_POINT('',(44.,0.,0.));
#406=CARTESIAN_POINT('',(0.,0.,0.));
#407=CARTESIAN_POINT('',(0.,0.,39.2));
#408=CARTESIAN_POINT('',(-2.2,-2.2,39.2));
#409=CARTESIAN_POINT('',(-11.3,-2.2,39.2));
#410=CARTESIAN_POINT('',(-2.2,-11.3,39.2));
#411=CARTESIAN_POINT('',(-11.3,2.2,39.2));
#412=CARTESIAN_POINT('',(-11.3,2.2,39.2));
#413=CARTESIAN_POINT('',(-2.2,2.2,39.2));
#414=CARTESIAN_POINT('',(-2.2,11.3,39.2));
#415=CARTESIAN_POINT('',(2.2,11.3,39.2));
#416=CARTESIAN_POINT('',(2.2,11.3,39.2));
#417=CARTESIAN_POINT('',(2.2,2.2,39.2));
#418=CARTESIAN_POINT('',(11.3,2.2,39.2));
#419=CARTESIAN_POINT('',(11.3,-2.2,39.2));
#420=CARTESIAN_POINT('',(11.3,-2.2,39.2));
#421=CARTESIAN_POINT('',(2.2,-2.2,39.2));
#422=CARTESIAN_POINT('',(2.2,-11.3,39.2));
#423=CARTESIAN_POINT('',(-2.2,-11.3,39.2));
#424=CARTESIAN_POINT('',(0.,0.,39.2));
#425=CARTESIAN_POINT('',(-23.5,0.,39.2));
#426=CARTESIAN_POINT('',(0.,0.,39.5));
#427=CARTESIAN_POINT('',(0.,0.,40.7));
#428=CARTESIAN_POINT('',(0.,0.,40.1));
#429=CARTESIAN_POINT('',(24.8747727084868,0.,40.1));
#430=CARTESIAN_POINT('',(0.,0.,39.5));
#431=CARTESIAN_POINT('',(-11.3,2.2,37.2));
#432=CARTESIAN_POINT('',(-11.3,-2.2,37.2));
#433=CARTESIAN_POINT('',(-11.3,-2.2,37.2));
#434=CARTESIAN_POINT('',(-11.3,2.2,37.2));
#435=CARTESIAN_POINT('',(-11.3,2.2,37.2));
#436=CARTESIAN_POINT('',(-11.3,2.2,37.2));
#437=CARTESIAN_POINT('',(-2.2,-2.2,37.2));
#438=CARTESIAN_POINT('',(-2.2,-11.3,37.2));
#439=CARTESIAN_POINT('',(-2.2,-11.3,37.2));
#440=CARTESIAN_POINT('',(-2.2,-2.2,37.2));
#441=CARTESIAN_POINT('',(-2.2,-11.3,37.2));
#442=CARTESIAN_POINT('',(2.2,-11.3,37.2));
#443=CARTESIAN_POINT('',(2.2,-11.3,37.2));
#444=CARTESIAN_POINT('',(-2.2,-11.3,37.2));
#445=CARTESIAN_POINT('',(2.2,-2.2,37.2));
#446=CARTESIAN_POINT('',(11.3,-2.2,37.2));
#447=CARTESIAN_POINT('',(11.3,-2.2,37.2));
#448=CARTESIAN_POINT('',(2.2,-2.2,37.2));
#449=CARTESIAN_POINT('',(11.3,-2.2,37.2));
#450=CARTESIAN_POINT('',(11.3,2.2,37.2));
#451=CARTESIAN_POINT('',(11.3,2.2,37.2));
#452=CARTESIAN_POINT('',(11.3,-2.2,37.2));
#453=CARTESIAN_POINT('',(2.2,2.2,37.2));
#454=CARTESIAN_POINT('',(2.2,11.3,37.2));
#455=CARTESIAN_POINT('',(2.2,11.3,37.2));
#456=CARTESIAN_POINT('',(2.2,2.2,37.2));
#457=CARTESIAN_POINT('',(2.2,11.3,37.2));
#458=CARTESIAN_POINT('',(-2.2,11.3,37.2));
#459=CARTESIAN_POINT('',(-2.2,11.3,37.2));
#460=CARTESIAN_POINT('',(2.2,11.3,37.2));
#461=CARTESIAN_POINT('',(-2.2,2.2,37.2));
#462=CARTESIAN_POINT('',(-2.2,2.2,37.2));
#463=CARTESIAN_POINT('',(-2.2,-2.2,37.2));
#464=MECHANICAL_DESIGN_GEOMETRIC_PRESENTATION_REPRESENTATION('',(#266),
#465);
#465=(
GEOMETRIC_REPRESENTATION_CONTEXT(3)
GLOBAL_UNCERTAINTY_ASSIGNED_CONTEXT((#466))
GLOBAL_UNIT_ASSIGNED_CONTEXT((#469,#468,#467))
REPRESENTATION_CONTEXT('SN 8424 RD','TOP_LEVEL_ASSEMBLY_PART')
);
#466=UNCERTAINTY_MEASURE_WITH_UNIT(LENGTH_MEASURE(0.005),#469,
'DISTANCE_ACCURACY_VALUE','Maximum Tolerance applied to model');
#467=(
NAMED_UNIT(*)
SI_UNIT($,.STERADIAN.)
SOLID_ANGLE_UNIT()
);
#468=(
NAMED_UNIT(*)
PLANE_ANGLE_UNIT()
SI_UNIT($,.RADIAN.)
);
#469=(
LENGTH_UNIT()
NAMED_UNIT(*)
SI_UNIT(.MILLI.,.METRE.)
);
#470=PRODUCT_DEFINITION_SHAPE('','',#471);
#471=PRODUCT_DEFINITION('','',#473,#472);
#472=PRODUCT_DEFINITION_CONTEXT('',#479,'design');
#473=PRODUCT_DEFINITION_FORMATION_WITH_SPECIFIED_SOURCE('','',#475,
 .NOT_KNOWN.);
#474=PRODUCT_RELATED_PRODUCT_CATEGORY('','',(#475));
#475=PRODUCT('SN 8424 RD','SN 8424 RD','SN 8424 RD',(#477));
#476=PRODUCT_CATEGORY('','');
#477=PRODUCT_CONTEXT('',#479,'mechanical');
#478=APPLICATION_PROTOCOL_DEFINITION('international standard',
'automotive_design',2010,#479);
#479=APPLICATION_CONTEXT(
'core data for automotive mechanical design processes');
ENDSEC;
END-ISO-10303-21;
