ISO-10303-21;
HEADER;
/* Generated by software containing ST-Developer
 * from STEP Tools, Inc. (www.steptools.com) 
 */
/* OPTION: strings as raw bytes, not using required /X/ escapes */

FILE_DESCRIPTION(
/* description */ ('Unknown',
'CAx-IF Rec.Pracs.---Representation and Presentation of Product Manufa
cturing Information (PMI)---4.0---2014-10-13',
'CAx-IF Rec.Pracs.---3D Tessellated Geometry---0.4---2014-09-14','2;1'),

/* implementation_level */ '2;1');

FILE_NAME(
/* name */ 'SN A 8727',
/* time_stamp */ '2020-08-19T15:27:33+02:00',
/* author */ ('Unknown'),
/* organization */ ('Unknown'),
/* preprocessor_version */ 'ST-DEVELOPER v16.7',
/* originating_system */ 'Solid Edge',
/* authorisation */ 'Unknown');

FILE_SCHEMA (('AP242_MANAGED_MODEL_BASED_3D_ENGINEERING_MIM_LF { 1 0 10303 442 1 1 4 }'));
ENDSEC;

DATA;
#10=SHAPE_REPRESENTATION_RELATIONSHIP('','',#91,#11);
#11=ADVANCED_BREP_SHAPE_REPRESENTATION('',(#89),#155);
#12=PLANE('',#96);
#13=PLANE('',#98);
#14=PLANE('',#101);
#15=PLANE('',#105);
#16=ORIENTED_EDGE('',*,*,#28,.T.);
#17=ORIENTED_EDGE('',*,*,#29,.F.);
#18=ORIENTED_EDGE('',*,*,#30,.T.);
#19=ORIENTED_EDGE('',*,*,#28,.F.);
#20=ORIENTED_EDGE('',*,*,#29,.T.);
#21=ORIENTED_EDGE('',*,*,#31,.T.);
#22=ORIENTED_EDGE('',*,*,#30,.F.);
#23=ORIENTED_EDGE('',*,*,#32,.T.);
#24=ORIENTED_EDGE('',*,*,#31,.F.);
#25=ORIENTED_EDGE('',*,*,#33,.T.);
#26=ORIENTED_EDGE('',*,*,#32,.F.);
#27=ORIENTED_EDGE('',*,*,#33,.F.);
#28=EDGE_CURVE('',#34,#34,#40,.T.);
#29=EDGE_CURVE('',#35,#35,#41,.T.);
#30=EDGE_CURVE('',#36,#36,#42,.T.);
#31=EDGE_CURVE('',#37,#37,#43,.T.);
#32=EDGE_CURVE('',#38,#38,#44,.T.);
#33=EDGE_CURVE('',#39,#39,#45,.T.);
#34=VERTEX_POINT('',#137);
#35=VERTEX_POINT('',#139);
#36=VERTEX_POINT('',#142);
#37=VERTEX_POINT('',#146);
#38=VERTEX_POINT('',#149);
#39=VERTEX_POINT('',#152);
#40=CIRCLE('',#94,230.);
#41=CIRCLE('',#95,230.);
#42=CIRCLE('',#97,217.);
#43=CIRCLE('',#100,217.);
#44=CIRCLE('',#102,194.7);
#45=CIRCLE('',#104,194.7);
#46=EDGE_LOOP('',(#16));
#47=EDGE_LOOP('',(#17));
#48=EDGE_LOOP('',(#18));
#49=EDGE_LOOP('',(#19));
#50=EDGE_LOOP('',(#20));
#51=EDGE_LOOP('',(#21));
#52=EDGE_LOOP('',(#22));
#53=EDGE_LOOP('',(#23));
#54=EDGE_LOOP('',(#24));
#55=EDGE_LOOP('',(#25));
#56=EDGE_LOOP('',(#26));
#57=EDGE_LOOP('',(#27));
#58=FACE_BOUND('',#46,.T.);
#59=FACE_BOUND('',#47,.T.);
#60=FACE_BOUND('',#48,.T.);
#61=FACE_BOUND('',#49,.T.);
#62=FACE_BOUND('',#50,.T.);
#63=FACE_BOUND('',#51,.T.);
#64=FACE_BOUND('',#52,.T.);
#65=FACE_BOUND('',#53,.T.);
#66=FACE_BOUND('',#54,.T.);
#67=FACE_BOUND('',#55,.T.);
#68=FACE_BOUND('',#56,.T.);
#69=FACE_BOUND('',#57,.T.);
#70=CYLINDRICAL_SURFACE('',#93,230.);
#71=CYLINDRICAL_SURFACE('',#99,217.);
#72=CYLINDRICAL_SURFACE('',#103,194.7);
#73=ADVANCED_FACE('',(#58,#59),#70,.T.);
#74=ADVANCED_FACE('',(#60,#61),#12,.F.);
#75=ADVANCED_FACE('',(#62),#13,.T.);
#76=ADVANCED_FACE('',(#63,#64),#71,.T.);
#77=ADVANCED_FACE('',(#65,#66),#14,.F.);
#78=ADVANCED_FACE('',(#67,#68),#72,.F.);
#79=ADVANCED_FACE('',(#69),#15,.F.);
#80=CLOSED_SHELL('',(#73,#74,#75,#76,#77,#78,#79));
#81=STYLED_ITEM('',(#82),#89);
#82=PRESENTATION_STYLE_ASSIGNMENT((#83));
#83=SURFACE_STYLE_USAGE(.BOTH.,#84);
#84=SURFACE_SIDE_STYLE('',(#85));
#85=SURFACE_STYLE_FILL_AREA(#86);
#86=FILL_AREA_STYLE('',(#87));
#87=FILL_AREA_STYLE_COLOUR('',#88);
#88=COLOUR_RGB('',0.645180702209473,0.678915679454803,0.699999988079071);
#89=MANIFOLD_SOLID_BREP('',#80);
#90=SHAPE_DEFINITION_REPRESENTATION(#160,#91);
#91=SHAPE_REPRESENTATION('SN A 8727',(#92),#155);
#92=AXIS2_PLACEMENT_3D('',#134,#106,#107);
#93=AXIS2_PLACEMENT_3D('',#135,#108,#109);
#94=AXIS2_PLACEMENT_3D('',#136,#110,#111);
#95=AXIS2_PLACEMENT_3D('',#138,#112,#113);
#96=AXIS2_PLACEMENT_3D('',#140,#114,#115);
#97=AXIS2_PLACEMENT_3D('',#141,#116,#117);
#98=AXIS2_PLACEMENT_3D('',#143,#118,#119);
#99=AXIS2_PLACEMENT_3D('',#144,#120,#121);
#100=AXIS2_PLACEMENT_3D('',#145,#122,#123);
#101=AXIS2_PLACEMENT_3D('',#147,#124,#125);
#102=AXIS2_PLACEMENT_3D('',#148,#126,#127);
#103=AXIS2_PLACEMENT_3D('',#150,#128,#129);
#104=AXIS2_PLACEMENT_3D('',#151,#130,#131);
#105=AXIS2_PLACEMENT_3D('',#153,#132,#133);
#106=DIRECTION('',(0.,0.,1.));
#107=DIRECTION('',(1.,0.,0.));
#108=DIRECTION('',(0.,0.,-1.));
#109=DIRECTION('',(-1.,0.,0.));
#110=DIRECTION('',(0.,0.,-1.));
#111=DIRECTION('',(1.,0.,0.));
#112=DIRECTION('',(0.,0.,-1.));
#113=DIRECTION('',(1.,0.,0.));
#114=DIRECTION('',(0.,0.,-1.));
#115=DIRECTION('',(-1.,0.,0.));
#116=DIRECTION('',(0.,0.,-1.));
#117=DIRECTION('',(0.,1.,0.));
#118=DIRECTION('',(0.,0.,-1.));
#119=DIRECTION('',(-1.,0.,0.));
#120=DIRECTION('',(0.,0.,-1.));
#121=DIRECTION('',(-1.,0.,0.));
#122=DIRECTION('',(0.,0.,-1.));
#123=DIRECTION('',(0.,1.,0.));
#124=DIRECTION('',(0.,0.,-1.));
#125=DIRECTION('',(-1.,0.,0.));
#126=DIRECTION('',(0.,0.,-1.));
#127=DIRECTION('',(0.,1.,0.));
#128=DIRECTION('',(0.,0.,1.));
#129=DIRECTION('',(1.,0.,0.));
#130=DIRECTION('',(0.,0.,-1.));
#131=DIRECTION('',(0.,1.,0.));
#132=DIRECTION('',(0.,0.,-1.));
#133=DIRECTION('',(-1.,0.,0.));
#134=CARTESIAN_POINT('',(0.,0.,0.));
#135=CARTESIAN_POINT('',(0.,0.,83.));
#136=CARTESIAN_POINT('',(0.,0.,83.));
#137=CARTESIAN_POINT('',(230.,0.,83.));
#138=CARTESIAN_POINT('',(0.,0.,0.));
#139=CARTESIAN_POINT('',(230.,0.,0.));
#140=CARTESIAN_POINT('',(0.,0.,83.));
#141=CARTESIAN_POINT('',(0.,0.,83.));
#142=CARTESIAN_POINT('',(0.,217.,83.));
#143=CARTESIAN_POINT('',(0.,0.,0.));
#144=CARTESIAN_POINT('',(0.,0.,98.));
#145=CARTESIAN_POINT('',(0.,0.,98.));
#146=CARTESIAN_POINT('',(0.,217.,98.));
#147=CARTESIAN_POINT('',(0.,0.,98.));
#148=CARTESIAN_POINT('',(0.,0.,98.));
#149=CARTESIAN_POINT('',(0.,194.7,98.));
#150=CARTESIAN_POINT('',(0.,0.,94.));
#151=CARTESIAN_POINT('',(0.,0.,94.));
#152=CARTESIAN_POINT('',(0.,194.7,94.));
#153=CARTESIAN_POINT('',(0.,0.,94.));
#154=MECHANICAL_DESIGN_GEOMETRIC_PRESENTATION_REPRESENTATION('',(#81),#155);
#155=(
GEOMETRIC_REPRESENTATION_CONTEXT(3)
GLOBAL_UNCERTAINTY_ASSIGNED_CONTEXT((#156))
GLOBAL_UNIT_ASSIGNED_CONTEXT((#159,#158,#157))
REPRESENTATION_CONTEXT('SN A 8727','TOP_LEVEL_ASSEMBLY_PART')
);
#156=UNCERTAINTY_MEASURE_WITH_UNIT(LENGTH_MEASURE(0.005),#159,
'DISTANCE_ACCURACY_VALUE','Maximum Tolerance applied to model');
#157=(
NAMED_UNIT(*)
SI_UNIT($,.STERADIAN.)
SOLID_ANGLE_UNIT()
);
#158=(
NAMED_UNIT(*)
PLANE_ANGLE_UNIT()
SI_UNIT($,.RADIAN.)
);
#159=(
LENGTH_UNIT()
NAMED_UNIT(*)
SI_UNIT(.MILLI.,.METRE.)
);
#160=PRODUCT_DEFINITION_SHAPE('','',#161);
#161=PRODUCT_DEFINITION('','',#163,#162);
#162=PRODUCT_DEFINITION_CONTEXT('',#169,'design');
#163=PRODUCT_DEFINITION_FORMATION_WITH_SPECIFIED_SOURCE('','',#165,
 .NOT_KNOWN.);
#164=PRODUCT_RELATED_PRODUCT_CATEGORY('','',(#165));
#165=PRODUCT('SN A 8727','SN A 8727','SN A 8727',(#167));
#166=PRODUCT_CATEGORY('','');
#167=PRODUCT_CONTEXT('',#169,'mechanical');
#168=APPLICATION_PROTOCOL_DEFINITION('international standard',
'ap242_managed_model_based_3d_engineering',2011,#169);
#169=APPLICATION_CONTEXT('managed model based 3d engineering');
ENDSEC;
END-ISO-10303-21;
