ISO-10303-21;
HEADER;
/* Generated by software containing ST-Developer
 * from STEP Tools, Inc. (www.steptools.com) 
 */
/* OPTION: strings as raw bytes, not using required /X/ escapes */

FILE_DESCRIPTION(
/* description */ ('Unknown'),
/* implementation_level */ '2;1');

FILE_NAME(
/* name */ 'SNP 1012 E',
/* time_stamp */ '2020-06-10T10:53:00+02:00',
/* author */ ('Unknown'),
/* organization */ ('Unknown'),
/* preprocessor_version */ 'ST-DEVELOPER v16.7',
/* originating_system */ 'Solid Edge',
/* authorisation */ 'Unknown');

FILE_SCHEMA (('AUTOMOTIVE_DESIGN {1 0 10303 214 3 1 1}'));
ENDSEC;

DATA;
#10=PROPERTY_DEFINITION_REPRESENTATION(#14,#12);
#11=PROPERTY_DEFINITION_REPRESENTATION(#15,#13);
#12=REPRESENTATION('',(#16),#604);
#13=REPRESENTATION('',(#17),#604);
#14=PROPERTY_DEFINITION('pmi validation property','',#609);
#15=PROPERTY_DEFINITION('pmi validation property','',#609);
#16=VALUE_REPRESENTATION_ITEM('number of annotations',COUNT_MEASURE(0.));
#17=VALUE_REPRESENTATION_ITEM('number of views',COUNT_MEASURE(0.));
#18=SHAPE_REPRESENTATION_RELATIONSHIP('','',#378,#19);
#19=ADVANCED_BREP_SHAPE_REPRESENTATION('',(#376),#604);
#20=ELLIPSE('',#394,3.53553390593274,2.5);
#21=ELLIPSE('',#395,3.53553390593274,2.5);
#22=ELLIPSE('',#397,3.53553390593274,2.5);
#23=ELLIPSE('',#399,3.53553390593274,2.5);
#24=CYLINDRICAL_SURFACE('',#393,2.5);
#25=CYLINDRICAL_SURFACE('',#396,2.5);
#26=CYLINDRICAL_SURFACE('',#398,2.5);
#27=CYLINDRICAL_SURFACE('',#400,2.5);
#28=CYLINDRICAL_SURFACE('',#401,2.5);
#29=CIRCLE('',#384,2.5);
#30=CIRCLE('',#386,2.5);
#31=ORIENTED_EDGE('',*,*,#125,.T.);
#32=ORIENTED_EDGE('',*,*,#126,.T.);
#33=ORIENTED_EDGE('',*,*,#127,.F.);
#34=ORIENTED_EDGE('',*,*,#128,.F.);
#35=ORIENTED_EDGE('',*,*,#129,.F.);
#36=ORIENTED_EDGE('',*,*,#130,.T.);
#37=ORIENTED_EDGE('',*,*,#131,.T.);
#38=ORIENTED_EDGE('',*,*,#132,.T.);
#39=ORIENTED_EDGE('',*,*,#133,.F.);
#40=ORIENTED_EDGE('',*,*,#132,.F.);
#41=ORIENTED_EDGE('',*,*,#134,.T.);
#42=ORIENTED_EDGE('',*,*,#135,.T.);
#43=ORIENTED_EDGE('',*,*,#131,.F.);
#44=ORIENTED_EDGE('',*,*,#136,.T.);
#45=ORIENTED_EDGE('',*,*,#125,.F.);
#46=ORIENTED_EDGE('',*,*,#137,.F.);
#47=ORIENTED_EDGE('',*,*,#134,.F.);
#48=ORIENTED_EDGE('',*,*,#127,.T.);
#49=ORIENTED_EDGE('',*,*,#138,.T.);
#50=ORIENTED_EDGE('',*,*,#129,.T.);
#51=ORIENTED_EDGE('',*,*,#133,.T.);
#52=ORIENTED_EDGE('',*,*,#139,.T.);
#53=ORIENTED_EDGE('',*,*,#140,.F.);
#54=ORIENTED_EDGE('',*,*,#141,.T.);
#55=ORIENTED_EDGE('',*,*,#142,.T.);
#56=ORIENTED_EDGE('',*,*,#143,.T.);
#57=ORIENTED_EDGE('',*,*,#144,.F.);
#58=ORIENTED_EDGE('',*,*,#145,.T.);
#59=ORIENTED_EDGE('',*,*,#140,.T.);
#60=ORIENTED_EDGE('',*,*,#146,.T.);
#61=ORIENTED_EDGE('',*,*,#147,.F.);
#62=ORIENTED_EDGE('',*,*,#148,.T.);
#63=ORIENTED_EDGE('',*,*,#144,.T.);
#64=ORIENTED_EDGE('',*,*,#149,.T.);
#65=ORIENTED_EDGE('',*,*,#142,.F.);
#66=ORIENTED_EDGE('',*,*,#150,.T.);
#67=ORIENTED_EDGE('',*,*,#147,.T.);
#68=ORIENTED_EDGE('',*,*,#151,.T.);
#69=ORIENTED_EDGE('',*,*,#152,.F.);
#70=ORIENTED_EDGE('',*,*,#153,.F.);
#71=ORIENTED_EDGE('',*,*,#154,.F.);
#72=ORIENTED_EDGE('',*,*,#155,.F.);
#73=ORIENTED_EDGE('',*,*,#156,.T.);
#74=ORIENTED_EDGE('',*,*,#157,.T.);
#75=ORIENTED_EDGE('',*,*,#158,.T.);
#76=ORIENTED_EDGE('',*,*,#159,.T.);
#77=ORIENTED_EDGE('',*,*,#139,.F.);
#78=ORIENTED_EDGE('',*,*,#135,.F.);
#79=ORIENTED_EDGE('',*,*,#137,.T.);
#80=ORIENTED_EDGE('',*,*,#128,.T.);
#81=ORIENTED_EDGE('',*,*,#143,.F.);
#82=ORIENTED_EDGE('',*,*,#151,.F.);
#83=ORIENTED_EDGE('',*,*,#149,.F.);
#84=ORIENTED_EDGE('',*,*,#146,.F.);
#85=ORIENTED_EDGE('',*,*,#160,.F.);
#86=ORIENTED_EDGE('',*,*,#148,.F.);
#87=ORIENTED_EDGE('',*,*,#161,.F.);
#88=ORIENTED_EDGE('',*,*,#159,.F.);
#89=ORIENTED_EDGE('',*,*,#161,.T.);
#90=ORIENTED_EDGE('',*,*,#150,.F.);
#91=ORIENTED_EDGE('',*,*,#162,.F.);
#92=ORIENTED_EDGE('',*,*,#156,.F.);
#93=ORIENTED_EDGE('',*,*,#160,.T.);
#94=ORIENTED_EDGE('',*,*,#158,.F.);
#95=ORIENTED_EDGE('',*,*,#163,.F.);
#96=ORIENTED_EDGE('',*,*,#145,.F.);
#97=ORIENTED_EDGE('',*,*,#162,.T.);
#98=ORIENTED_EDGE('',*,*,#141,.F.);
#99=ORIENTED_EDGE('',*,*,#163,.T.);
#100=ORIENTED_EDGE('',*,*,#157,.F.);
#101=ORIENTED_EDGE('',*,*,#136,.F.);
#102=ORIENTED_EDGE('',*,*,#130,.F.);
#103=ORIENTED_EDGE('',*,*,#138,.F.);
#104=ORIENTED_EDGE('',*,*,#126,.F.);
#105=ORIENTED_EDGE('',*,*,#152,.T.);
#106=ORIENTED_EDGE('',*,*,#164,.F.);
#107=ORIENTED_EDGE('',*,*,#165,.F.);
#108=ORIENTED_EDGE('',*,*,#166,.T.);
#109=ORIENTED_EDGE('',*,*,#155,.T.);
#110=ORIENTED_EDGE('',*,*,#167,.F.);
#111=ORIENTED_EDGE('',*,*,#168,.F.);
#112=ORIENTED_EDGE('',*,*,#164,.T.);
#113=ORIENTED_EDGE('',*,*,#154,.T.);
#114=ORIENTED_EDGE('',*,*,#169,.F.);
#115=ORIENTED_EDGE('',*,*,#170,.F.);
#116=ORIENTED_EDGE('',*,*,#167,.T.);
#117=ORIENTED_EDGE('',*,*,#153,.T.);
#118=ORIENTED_EDGE('',*,*,#166,.F.);
#119=ORIENTED_EDGE('',*,*,#171,.F.);
#120=ORIENTED_EDGE('',*,*,#169,.T.);
#121=ORIENTED_EDGE('',*,*,#165,.T.);
#122=ORIENTED_EDGE('',*,*,#168,.T.);
#123=ORIENTED_EDGE('',*,*,#170,.T.);
#124=ORIENTED_EDGE('',*,*,#171,.T.);
#125=EDGE_CURVE('',#172,#173,#202,.T.);
#126=EDGE_CURVE('',#173,#174,#203,.T.);
#127=EDGE_CURVE('',#175,#174,#204,.T.);
#128=EDGE_CURVE('',#172,#175,#205,.T.);
#129=EDGE_CURVE('',#176,#177,#206,.T.);
#130=EDGE_CURVE('',#176,#178,#207,.F.);
#131=EDGE_CURVE('',#178,#179,#208,.T.);
#132=EDGE_CURVE('',#179,#177,#209,.T.);
#133=EDGE_CURVE('',#177,#180,#210,.T.);
#134=EDGE_CURVE('',#179,#181,#211,.T.);
#135=EDGE_CURVE('',#181,#180,#212,.T.);
#136=EDGE_CURVE('',#178,#173,#29,.F.);
#137=EDGE_CURVE('',#181,#172,#213,.T.);
#138=EDGE_CURVE('',#174,#176,#30,.T.);
#139=EDGE_CURVE('',#180,#175,#214,.T.);
#140=EDGE_CURVE('',#182,#183,#215,.T.);
#141=EDGE_CURVE('',#182,#184,#216,.F.);
#142=EDGE_CURVE('',#184,#185,#217,.T.);
#143=EDGE_CURVE('',#185,#183,#218,.T.);
#144=EDGE_CURVE('',#186,#187,#219,.T.);
#145=EDGE_CURVE('',#186,#182,#220,.F.);
#146=EDGE_CURVE('',#183,#187,#221,.T.);
#147=EDGE_CURVE('',#188,#189,#222,.T.);
#148=EDGE_CURVE('',#188,#186,#223,.F.);
#149=EDGE_CURVE('',#187,#189,#224,.T.);
#150=EDGE_CURVE('',#184,#188,#225,.F.);
#151=EDGE_CURVE('',#189,#185,#226,.T.);
#152=EDGE_CURVE('',#190,#191,#227,.T.);
#153=EDGE_CURVE('',#192,#190,#228,.T.);
#154=EDGE_CURVE('',#193,#192,#229,.T.);
#155=EDGE_CURVE('',#191,#193,#230,.T.);
#156=EDGE_CURVE('',#194,#195,#231,.T.);
#157=EDGE_CURVE('',#195,#196,#232,.T.);
#158=EDGE_CURVE('',#196,#197,#233,.T.);
#159=EDGE_CURVE('',#197,#194,#234,.T.);
#160=EDGE_CURVE('',#186,#197,#20,.T.);
#161=EDGE_CURVE('',#194,#188,#21,.F.);
#162=EDGE_CURVE('',#195,#184,#22,.F.);
#163=EDGE_CURVE('',#182,#196,#23,.T.);
#164=EDGE_CURVE('',#198,#191,#235,.T.);
#165=EDGE_CURVE('',#199,#198,#236,.T.);
#166=EDGE_CURVE('',#199,#190,#237,.T.);
#167=EDGE_CURVE('',#200,#193,#238,.T.);
#168=EDGE_CURVE('',#198,#200,#239,.T.);
#169=EDGE_CURVE('',#201,#192,#240,.T.);
#170=EDGE_CURVE('',#200,#201,#241,.T.);
#171=EDGE_CURVE('',#201,#199,#242,.T.);
#172=VERTEX_POINT('',#507);
#173=VERTEX_POINT('',#508);
#174=VERTEX_POINT('',#510);
#175=VERTEX_POINT('',#512);
#176=VERTEX_POINT('',#516);
#177=VERTEX_POINT('',#517);
#178=VERTEX_POINT('',#519);
#179=VERTEX_POINT('',#521);
#180=VERTEX_POINT('',#525);
#181=VERTEX_POINT('',#527);
#182=VERTEX_POINT('',#537);
#183=VERTEX_POINT('',#538);
#184=VERTEX_POINT('',#540);
#185=VERTEX_POINT('',#542);
#186=VERTEX_POINT('',#546);
#187=VERTEX_POINT('',#547);
#188=VERTEX_POINT('',#552);
#189=VERTEX_POINT('',#553);
#190=VERTEX_POINT('',#561);
#191=VERTEX_POINT('',#562);
#192=VERTEX_POINT('',#564);
#193=VERTEX_POINT('',#566);
#194=VERTEX_POINT('',#569);
#195=VERTEX_POINT('',#570);
#196=VERTEX_POINT('',#572);
#197=VERTEX_POINT('',#574);
#198=VERTEX_POINT('',#588);
#199=VERTEX_POINT('',#590);
#200=VERTEX_POINT('',#594);
#201=VERTEX_POINT('',#598);
#202=LINE('',#506,#243);
#203=LINE('',#509,#244);
#204=LINE('',#511,#245);
#205=LINE('',#513,#246);
#206=LINE('',#515,#247);
#207=LINE('',#518,#248);
#208=LINE('',#520,#249);
#209=LINE('',#522,#250);
#210=LINE('',#524,#251);
#211=LINE('',#526,#252);
#212=LINE('',#528,#253);
#213=LINE('',#531,#254);
#214=LINE('',#534,#255);
#215=LINE('',#536,#256);
#216=LINE('',#539,#257);
#217=LINE('',#541,#258);
#218=LINE('',#543,#259);
#219=LINE('',#545,#260);
#220=LINE('',#548,#261);
#221=LINE('',#549,#262);
#222=LINE('',#551,#263);
#223=LINE('',#554,#264);
#224=LINE('',#555,#265);
#225=LINE('',#557,#266);
#226=LINE('',#558,#267);
#227=LINE('',#560,#268);
#228=LINE('',#563,#269);
#229=LINE('',#565,#270);
#230=LINE('',#567,#271);
#231=LINE('',#568,#272);
#232=LINE('',#571,#273);
#233=LINE('',#573,#274);
#234=LINE('',#575,#275);
#235=LINE('',#587,#276);
#236=LINE('',#589,#277);
#237=LINE('',#591,#278);
#238=LINE('',#593,#279);
#239=LINE('',#595,#280);
#240=LINE('',#597,#281);
#241=LINE('',#599,#282);
#242=LINE('',#601,#283);
#243=VECTOR('',#411,1000.);
#244=VECTOR('',#412,1000.);
#245=VECTOR('',#413,1000.);
#246=VECTOR('',#414,1000.);
#247=VECTOR('',#417,1000.);
#248=VECTOR('',#418,1000.);
#249=VECTOR('',#419,1000.);
#250=VECTOR('',#420,1000.);
#251=VECTOR('',#423,1000.);
#252=VECTOR('',#424,1000.);
#253=VECTOR('',#425,1000.);
#254=VECTOR('',#430,1000.);
#255=VECTOR('',#435,1000.);
#256=VECTOR('',#438,1000.);
#257=VECTOR('',#439,1000.);
#258=VECTOR('',#440,1000.);
#259=VECTOR('',#441,1000.);
#260=VECTOR('',#444,1000.);
#261=VECTOR('',#445,1000.);
#262=VECTOR('',#446,1000.);
#263=VECTOR('',#449,1000.);
#264=VECTOR('',#450,1000.);
#265=VECTOR('',#451,1000.);
#266=VECTOR('',#454,1000.);
#267=VECTOR('',#455,1000.);
#268=VECTOR('',#458,1000.);
#269=VECTOR('',#459,1000.);
#270=VECTOR('',#460,1000.);
#271=VECTOR('',#461,1000.);
#272=VECTOR('',#462,1000.);
#273=VECTOR('',#463,1000.);
#274=VECTOR('',#464,1000.);
#275=VECTOR('',#465,1000.);
#276=VECTOR('',#488,1000.);
#277=VECTOR('',#489,1000.);
#278=VECTOR('',#490,1000.);
#279=VECTOR('',#493,1000.);
#280=VECTOR('',#494,1000.);
#281=VECTOR('',#497,1000.);
#282=VECTOR('',#498,1000.);
#283=VECTOR('',#501,1000.);
#284=EDGE_LOOP('',(#31,#32,#33,#34));
#285=EDGE_LOOP('',(#35,#36,#37,#38));
#286=EDGE_LOOP('',(#39,#40,#41,#42));
#287=EDGE_LOOP('',(#43,#44,#45,#46,#47));
#288=EDGE_LOOP('',(#48,#49,#50,#51,#52));
#289=EDGE_LOOP('',(#53,#54,#55,#56));
#290=EDGE_LOOP('',(#57,#58,#59,#60));
#291=EDGE_LOOP('',(#61,#62,#63,#64));
#292=EDGE_LOOP('',(#65,#66,#67,#68));
#293=EDGE_LOOP('',(#69,#70,#71,#72));
#294=EDGE_LOOP('',(#73,#74,#75,#76));
#295=EDGE_LOOP('',(#77,#78,#79,#80));
#296=EDGE_LOOP('',(#81,#82,#83,#84));
#297=EDGE_LOOP('',(#85,#86,#87,#88));
#298=EDGE_LOOP('',(#89,#90,#91,#92));
#299=EDGE_LOOP('',(#93,#94,#95,#96));
#300=EDGE_LOOP('',(#97,#98,#99,#100));
#301=EDGE_LOOP('',(#101,#102,#103,#104));
#302=EDGE_LOOP('',(#105,#106,#107,#108));
#303=EDGE_LOOP('',(#109,#110,#111,#112));
#304=EDGE_LOOP('',(#113,#114,#115,#116));
#305=EDGE_LOOP('',(#117,#118,#119,#120));
#306=EDGE_LOOP('',(#121,#122,#123,#124));
#307=FACE_BOUND('',#284,.T.);
#308=FACE_BOUND('',#285,.T.);
#309=FACE_BOUND('',#286,.T.);
#310=FACE_BOUND('',#287,.T.);
#311=FACE_BOUND('',#288,.T.);
#312=FACE_BOUND('',#289,.T.);
#313=FACE_BOUND('',#290,.T.);
#314=FACE_BOUND('',#291,.T.);
#315=FACE_BOUND('',#292,.T.);
#316=FACE_BOUND('',#293,.T.);
#317=FACE_BOUND('',#294,.T.);
#318=FACE_BOUND('',#295,.T.);
#319=FACE_BOUND('',#296,.T.);
#320=FACE_BOUND('',#297,.T.);
#321=FACE_BOUND('',#298,.T.);
#322=FACE_BOUND('',#299,.T.);
#323=FACE_BOUND('',#300,.T.);
#324=FACE_BOUND('',#301,.T.);
#325=FACE_BOUND('',#302,.T.);
#326=FACE_BOUND('',#303,.T.);
#327=FACE_BOUND('',#304,.T.);
#328=FACE_BOUND('',#305,.T.);
#329=FACE_BOUND('',#306,.T.);
#330=PLANE('',#380);
#331=PLANE('',#381);
#332=PLANE('',#382);
#333=PLANE('',#383);
#334=PLANE('',#385);
#335=PLANE('',#387);
#336=PLANE('',#388);
#337=PLANE('',#389);
#338=PLANE('',#390);
#339=PLANE('',#391);
#340=PLANE('',#392);
#341=PLANE('',#402);
#342=PLANE('',#403);
#343=PLANE('',#404);
#344=PLANE('',#405);
#345=PLANE('',#406);
#346=ADVANCED_FACE('',(#307),#330,.T.);
#347=ADVANCED_FACE('',(#308),#331,.T.);
#348=ADVANCED_FACE('',(#309),#332,.T.);
#349=ADVANCED_FACE('',(#310),#333,.F.);
#350=ADVANCED_FACE('',(#311),#334,.T.);
#351=ADVANCED_FACE('',(#312),#335,.F.);
#352=ADVANCED_FACE('',(#313),#336,.F.);
#353=ADVANCED_FACE('',(#314),#337,.F.);
#354=ADVANCED_FACE('',(#315),#338,.F.);
#355=ADVANCED_FACE('',(#316,#317),#339,.T.);
#356=ADVANCED_FACE('',(#318,#319),#340,.F.);
#357=ADVANCED_FACE('',(#320),#24,.T.);
#358=ADVANCED_FACE('',(#321),#25,.T.);
#359=ADVANCED_FACE('',(#322),#26,.T.);
#360=ADVANCED_FACE('',(#323),#27,.T.);
#361=ADVANCED_FACE('',(#324),#28,.T.);
#362=ADVANCED_FACE('',(#325),#341,.F.);
#363=ADVANCED_FACE('',(#326),#342,.F.);
#364=ADVANCED_FACE('',(#327),#343,.F.);
#365=ADVANCED_FACE('',(#328),#344,.F.);
#366=ADVANCED_FACE('',(#329),#345,.T.);
#367=CLOSED_SHELL('',(#346,#347,#348,#349,#350,#351,#352,#353,#354,#355,
#356,#357,#358,#359,#360,#361,#362,#363,#364,#365,#366));
#368=STYLED_ITEM('',(#369),#376);
#369=PRESENTATION_STYLE_ASSIGNMENT((#370));
#370=SURFACE_STYLE_USAGE(.BOTH.,#371);
#371=SURFACE_SIDE_STYLE('',(#372));
#372=SURFACE_STYLE_FILL_AREA(#373);
#373=FILL_AREA_STYLE('',(#374));
#374=FILL_AREA_STYLE_COLOUR('',#375);
#375=COLOUR_RGB('',0.645180702209473,0.678915679454803,0.699999988079071);
#376=MANIFOLD_SOLID_BREP('',#367);
#377=SHAPE_DEFINITION_REPRESENTATION(#609,#378);
#378=SHAPE_REPRESENTATION('SNP 1012 E',(#379),#604);
#379=AXIS2_PLACEMENT_3D('',#504,#407,#408);
#380=AXIS2_PLACEMENT_3D('',#505,#409,#410);
#381=AXIS2_PLACEMENT_3D('',#514,#415,#416);
#382=AXIS2_PLACEMENT_3D('',#523,#421,#422);
#383=AXIS2_PLACEMENT_3D('',#529,#426,#427);
#384=AXIS2_PLACEMENT_3D('',#530,#428,#429);
#385=AXIS2_PLACEMENT_3D('',#532,#431,#432);
#386=AXIS2_PLACEMENT_3D('',#533,#433,#434);
#387=AXIS2_PLACEMENT_3D('',#535,#436,#437);
#388=AXIS2_PLACEMENT_3D('',#544,#442,#443);
#389=AXIS2_PLACEMENT_3D('',#550,#447,#448);
#390=AXIS2_PLACEMENT_3D('',#556,#452,#453);
#391=AXIS2_PLACEMENT_3D('',#559,#456,#457);
#392=AXIS2_PLACEMENT_3D('',#576,#466,#467);
#393=AXIS2_PLACEMENT_3D('',#577,#468,#469);
#394=AXIS2_PLACEMENT_3D('',#578,#470,#471);
#395=AXIS2_PLACEMENT_3D('',#579,#472,#473);
#396=AXIS2_PLACEMENT_3D('',#580,#474,#475);
#397=AXIS2_PLACEMENT_3D('',#581,#476,#477);
#398=AXIS2_PLACEMENT_3D('',#582,#478,#479);
#399=AXIS2_PLACEMENT_3D('',#583,#480,#481);
#400=AXIS2_PLACEMENT_3D('',#584,#482,#483);
#401=AXIS2_PLACEMENT_3D('',#585,#484,#485);
#402=AXIS2_PLACEMENT_3D('',#586,#486,#487);
#403=AXIS2_PLACEMENT_3D('',#592,#491,#492);
#404=AXIS2_PLACEMENT_3D('',#596,#495,#496);
#405=AXIS2_PLACEMENT_3D('',#600,#499,#500);
#406=AXIS2_PLACEMENT_3D('',#602,#502,#503);
#407=DIRECTION('',(0.,0.,1.));
#408=DIRECTION('',(1.,0.,0.));
#409=DIRECTION('',(-1.,0.,0.));
#410=DIRECTION('',(0.,0.,1.));
#411=DIRECTION('',(0.,0.,-1.));
#412=DIRECTION('',(0.,-1.,0.));
#413=DIRECTION('',(0.,0.,-1.));
#414=DIRECTION('',(0.,-1.,0.));
#415=DIRECTION('',(0.,0.,-1.));
#416=DIRECTION('',(-1.,0.,0.));
#417=DIRECTION('',(1.,0.,0.));
#418=DIRECTION('',(0.,-1.,0.));
#419=DIRECTION('',(1.,0.,0.));
#420=DIRECTION('',(0.,-1.,0.));
#421=DIRECTION('',(1.,0.,0.));
#422=DIRECTION('',(0.,0.,-1.));
#423=DIRECTION('',(0.,0.,1.));
#424=DIRECTION('',(0.,0.,1.));
#425=DIRECTION('',(0.,-1.,0.));
#426=DIRECTION('',(0.,-1.,0.));
#427=DIRECTION('',(0.,0.,-1.));
#428=DIRECTION('',(0.,-1.,0.));
#429=DIRECTION('',(0.,0.,-1.));
#430=DIRECTION('',(-1.,0.,0.));
#431=DIRECTION('',(0.,-1.,0.));
#432=DIRECTION('',(0.,0.,-1.));
#433=DIRECTION('',(0.,-1.,0.));
#434=DIRECTION('',(0.,0.,-1.));
#435=DIRECTION('',(-1.,0.,0.));
#436=DIRECTION('',(0.,-1.,0.));
#437=DIRECTION('',(0.,0.,-1.));
#438=DIRECTION('',(0.,0.,-1.));
#439=DIRECTION('',(-1.,0.,0.));
#440=DIRECTION('',(0.,0.,-1.));
#441=DIRECTION('',(-1.,0.,0.));
#442=DIRECTION('',(1.,0.,0.));
#443=DIRECTION('',(0.,0.,-1.));
#444=DIRECTION('',(0.,0.,-1.));
#445=DIRECTION('',(0.,-1.,0.));
#446=DIRECTION('',(0.,-1.,0.));
#447=DIRECTION('',(0.,1.,0.));
#448=DIRECTION('',(0.,0.,1.));
#449=DIRECTION('',(0.,0.,-1.));
#450=DIRECTION('',(1.,0.,0.));
#451=DIRECTION('',(1.,0.,0.));
#452=DIRECTION('',(-1.,0.,0.));
#453=DIRECTION('',(0.,0.,1.));
#454=DIRECTION('',(0.,1.,0.));
#455=DIRECTION('',(0.,1.,0.));
#456=DIRECTION('',(0.,0.,1.));
#457=DIRECTION('',(1.,0.,0.));
#458=DIRECTION('',(1.,0.,0.));
#459=DIRECTION('',(-4.79963017068682E-17,-1.,0.));
#460=DIRECTION('',(-1.,0.,0.));
#461=DIRECTION('',(0.,1.,0.));
#462=DIRECTION('',(0.,1.,0.));
#463=DIRECTION('',(-1.,0.,0.));
#464=DIRECTION('',(0.,-1.,0.));
#465=DIRECTION('',(1.,0.,0.));
#466=DIRECTION('',(0.,0.,1.));
#467=DIRECTION('',(1.,0.,0.));
#468=DIRECTION('',(-1.,0.,0.));
#469=DIRECTION('',(0.,0.,1.));
#470=DIRECTION('',(-0.707106781186547,0.707106781186547,0.));
#471=DIRECTION('',(-0.707106781186547,-0.707106781186547,0.));
#472=DIRECTION('',(-0.707106781186547,-0.707106781186547,0.));
#473=DIRECTION('',(-0.707106781186547,0.707106781186547,0.));
#474=DIRECTION('',(0.,-1.,0.));
#475=DIRECTION('',(0.,0.,-1.));
#476=DIRECTION('',(0.707106781186547,-0.707106781186547,0.));
#477=DIRECTION('',(-0.707106781186547,-0.707106781186547,0.));
#478=DIRECTION('',(0.,1.,0.));
#479=DIRECTION('',(0.,0.,1.));
#480=DIRECTION('',(0.707106781186547,0.707106781186547,0.));
#481=DIRECTION('',(-0.707106781186547,0.707106781186547,0.));
#482=DIRECTION('',(1.,0.,0.));
#483=DIRECTION('',(0.,0.,-1.));
#484=DIRECTION('',(0.,-1.,0.));
#485=DIRECTION('',(0.,0.,-1.));
#486=DIRECTION('',(0.,-1.,0.));
#487=DIRECTION('',(0.,0.,-1.));
#488=DIRECTION('',(0.,0.,1.));
#489=DIRECTION('',(1.,0.,0.));
#490=DIRECTION('',(0.,0.,1.));
#491=DIRECTION('',(1.,0.,0.));
#492=DIRECTION('',(0.,0.,-1.));
#493=DIRECTION('',(0.,0.,1.));
#494=DIRECTION('',(0.,1.,0.));
#495=DIRECTION('',(0.,1.,0.));
#496=DIRECTION('',(0.,0.,1.));
#497=DIRECTION('',(0.,0.,1.));
#498=DIRECTION('',(-1.,0.,0.));
#499=DIRECTION('',(-1.,4.79963017068682E-17,0.));
#500=DIRECTION('',(-4.79963017068682E-17,-1.,0.));
#501=DIRECTION('',(-4.79963017068682E-17,-1.,0.));
#502=DIRECTION('',(0.,0.,1.));
#503=DIRECTION('',(1.,0.,0.));
#504=CARTESIAN_POINT('',(0.,0.,0.));
#505=CARTESIAN_POINT('',(-29.75,293.,26.));
#506=CARTESIAN_POINT('',(-29.75,293.,26.));
#507=CARTESIAN_POINT('',(-29.75,293.,26.));
#508=CARTESIAN_POINT('',(-29.75,293.,-23.5));
#509=CARTESIAN_POINT('',(-29.75,293.,-23.5));
#510=CARTESIAN_POINT('',(-29.75,0.,-23.5));
#511=CARTESIAN_POINT('',(-29.75,0.,26.));
#512=CARTESIAN_POINT('',(-29.75,0.,26.));
#513=CARTESIAN_POINT('',(-29.75,293.,26.));
#514=CARTESIAN_POINT('',(-29.75,293.,-26.));
#515=CARTESIAN_POINT('',(-29.75,0.,-26.));
#516=CARTESIAN_POINT('',(-27.25,0.,-26.));
#517=CARTESIAN_POINT('',(29.75,0.,-26.));
#518=CARTESIAN_POINT('',(-27.25,293.,-26.));
#519=CARTESIAN_POINT('',(-27.25,293.,-26.));
#520=CARTESIAN_POINT('',(-29.75,293.,-26.));
#521=CARTESIAN_POINT('',(29.75,293.,-26.));
#522=CARTESIAN_POINT('',(29.75,293.,-26.));
#523=CARTESIAN_POINT('',(29.75,293.,-26.));
#524=CARTESIAN_POINT('',(29.75,0.,-26.));
#525=CARTESIAN_POINT('',(29.75,0.,26.));
#526=CARTESIAN_POINT('',(29.75,293.,-26.));
#527=CARTESIAN_POINT('',(29.75,293.,26.));
#528=CARTESIAN_POINT('',(29.75,293.,26.));
#529=CARTESIAN_POINT('',(0.,293.,0.));
#530=CARTESIAN_POINT('',(-27.25,293.,-23.5));
#531=CARTESIAN_POINT('',(29.75,293.,26.));
#532=CARTESIAN_POINT('',(0.,0.,0.));
#533=CARTESIAN_POINT('',(-27.25,0.,-23.5));
#534=CARTESIAN_POINT('',(29.75,0.,26.));
#535=CARTESIAN_POINT('',(43.,303.,31.));
#536=CARTESIAN_POINT('',(-43.,303.,31.));
#537=CARTESIAN_POINT('',(-43.,303.,28.5));
#538=CARTESIAN_POINT('',(-43.,303.,26.));
#539=CARTESIAN_POINT('',(43.,303.,28.5));
#540=CARTESIAN_POINT('',(43.,303.,28.5));
#541=CARTESIAN_POINT('',(43.,303.,31.));
#542=CARTESIAN_POINT('',(43.,303.,26.));
#543=CARTESIAN_POINT('',(43.,303.,26.));
#544=CARTESIAN_POINT('',(-43.,303.,31.));
#545=CARTESIAN_POINT('',(-43.,-10.,31.));
#546=CARTESIAN_POINT('',(-43.,-10.,28.5));
#547=CARTESIAN_POINT('',(-43.,-10.,26.));
#548=CARTESIAN_POINT('',(-43.,303.,28.5));
#549=CARTESIAN_POINT('',(-43.,303.,26.));
#550=CARTESIAN_POINT('',(-43.,-10.,31.));
#551=CARTESIAN_POINT('',(43.,-10.,31.));
#552=CARTESIAN_POINT('',(43.,-10.,28.5));
#553=CARTESIAN_POINT('',(43.,-10.,26.));
#554=CARTESIAN_POINT('',(-43.,-10.,28.5));
#555=CARTESIAN_POINT('',(-43.,-10.,26.));
#556=CARTESIAN_POINT('',(43.,-10.,31.));
#557=CARTESIAN_POINT('',(43.,-10.,28.5));
#558=CARTESIAN_POINT('',(43.,-10.,26.));
#559=CARTESIAN_POINT('',(0.,0.,31.));
#560=CARTESIAN_POINT('',(-5.5,20.,31.));
#561=CARTESIAN_POINT('',(-5.5,20.,31.));
#562=CARTESIAN_POINT('',(5.5,20.,31.));
#563=CARTESIAN_POINT('',(-5.49999999999999,273.,31.));
#564=CARTESIAN_POINT('',(-5.49999999999999,273.,31.));
#565=CARTESIAN_POINT('',(5.5,273.,31.));
#566=CARTESIAN_POINT('',(5.5,273.,31.));
#567=CARTESIAN_POINT('',(5.5,20.,31.));
#568=CARTESIAN_POINT('',(40.5,303.,31.));
#569=CARTESIAN_POINT('',(40.5,-7.50000000000001,31.));
#570=CARTESIAN_POINT('',(40.5,300.5,31.));
#571=CARTESIAN_POINT('',(-43.,300.5,31.));
#572=CARTESIAN_POINT('',(-40.5,300.5,31.));
#573=CARTESIAN_POINT('',(-40.5,-10.,31.));
#574=CARTESIAN_POINT('',(-40.5,-7.50000000000001,31.));
#575=CARTESIAN_POINT('',(43.,-7.50000000000001,31.));
#576=CARTESIAN_POINT('',(0.,0.,26.));
#577=CARTESIAN_POINT('',(0.,-7.50000000000001,28.5));
#578=CARTESIAN_POINT('',(-40.5,-7.50000000000001,28.5));
#579=CARTESIAN_POINT('',(40.5,-7.50000000000001,28.5));
#580=CARTESIAN_POINT('',(40.5,0.,28.5));
#581=CARTESIAN_POINT('',(40.5,300.5,28.5));
#582=CARTESIAN_POINT('',(-40.5,0.,28.5));
#583=CARTESIAN_POINT('',(-40.5,300.5,28.5));
#584=CARTESIAN_POINT('',(0.,300.5,28.5));
#585=CARTESIAN_POINT('',(-27.25,293.,-23.5));
#586=CARTESIAN_POINT('',(-5.5,20.,26.));
#587=CARTESIAN_POINT('',(5.5,20.,26.));
#588=CARTESIAN_POINT('',(5.5,20.,26.));
#589=CARTESIAN_POINT('',(-5.5,20.,26.));
#590=CARTESIAN_POINT('',(-5.5,20.,26.));
#591=CARTESIAN_POINT('',(-5.5,20.,26.));
#592=CARTESIAN_POINT('',(5.5,20.,26.));
#593=CARTESIAN_POINT('',(5.5,273.,26.));
#594=CARTESIAN_POINT('',(5.5,273.,26.));
#595=CARTESIAN_POINT('',(5.5,20.,26.));
#596=CARTESIAN_POINT('',(5.5,273.,26.));
#597=CARTESIAN_POINT('',(-5.49999999999999,273.,26.));
#598=CARTESIAN_POINT('',(-5.49999999999999,273.,26.));
#599=CARTESIAN_POINT('',(5.5,273.,26.));
#600=CARTESIAN_POINT('',(-5.49999999999999,273.,26.));
#601=CARTESIAN_POINT('',(-5.49999999999999,273.,26.));
#602=CARTESIAN_POINT('',(0.,0.,26.));
#603=MECHANICAL_DESIGN_GEOMETRIC_PRESENTATION_REPRESENTATION('',(#368),
#604);
#604=(
GEOMETRIC_REPRESENTATION_CONTEXT(3)
GLOBAL_UNCERTAINTY_ASSIGNED_CONTEXT((#605))
GLOBAL_UNIT_ASSIGNED_CONTEXT((#608,#607,#606))
REPRESENTATION_CONTEXT('SNP 1012 E','TOP_LEVEL_ASSEMBLY_PART')
);
#605=UNCERTAINTY_MEASURE_WITH_UNIT(LENGTH_MEASURE(0.005),#608,
'DISTANCE_ACCURACY_VALUE','Maximum Tolerance applied to model');
#606=(
NAMED_UNIT(*)
SI_UNIT($,.STERADIAN.)
SOLID_ANGLE_UNIT()
);
#607=(
NAMED_UNIT(*)
PLANE_ANGLE_UNIT()
SI_UNIT($,.RADIAN.)
);
#608=(
LENGTH_UNIT()
NAMED_UNIT(*)
SI_UNIT(.MILLI.,.METRE.)
);
#609=PRODUCT_DEFINITION_SHAPE('','',#610);
#610=PRODUCT_DEFINITION('','',#612,#611);
#611=PRODUCT_DEFINITION_CONTEXT('',#618,'design');
#612=PRODUCT_DEFINITION_FORMATION_WITH_SPECIFIED_SOURCE('','',#614,
 .NOT_KNOWN.);
#613=PRODUCT_RELATED_PRODUCT_CATEGORY('','',(#614));
#614=PRODUCT('SNP 1012 E','SNP 1012 E','SNP 1012 E',(#616));
#615=PRODUCT_CATEGORY('','');
#616=PRODUCT_CONTEXT('',#618,'mechanical');
#617=APPLICATION_PROTOCOL_DEFINITION('international standard',
'automotive_design',2010,#618);
#618=APPLICATION_CONTEXT(
'core data for automotive mechanical design processes');
ENDSEC;
END-ISO-10303-21;
