ISO-10303-21;
HEADER;
/* Generated by software containing ST-Developer
 * from STEP Tools, Inc. (www.steptools.com) 
 */
/* OPTION: strings as raw bytes, not using required /X/ escapes */

FILE_DESCRIPTION(
/* description */ ('Unknown'),
/* implementation_level */ '2;1');

FILE_NAME(
/* name */ 'SNP 1013',
/* time_stamp */ '2020-06-10T11:25:20+02:00',
/* author */ ('Unknown'),
/* organization */ ('Unknown'),
/* preprocessor_version */ 'ST-DEVELOPER v16.7',
/* originating_system */ 'Solid Edge',
/* authorisation */ 'Unknown');

FILE_SCHEMA (('AUTOMOTIVE_DESIGN {1 0 10303 214 3 1 1}'));
ENDSEC;

DATA;
#10=PROPERTY_DEFINITION_REPRESENTATION(#14,#12);
#11=PROPERTY_DEFINITION_REPRESENTATION(#15,#13);
#12=REPRESENTATION('',(#16),#473);
#13=REPRESENTATION('',(#17),#473);
#14=PROPERTY_DEFINITION('pmi validation property','',#478);
#15=PROPERTY_DEFINITION('pmi validation property','',#478);
#16=VALUE_REPRESENTATION_ITEM('number of annotations',COUNT_MEASURE(0.));
#17=VALUE_REPRESENTATION_ITEM('number of views',COUNT_MEASURE(0.));
#18=SHAPE_REPRESENTATION_RELATIONSHIP('','',#299,#19);
#19=ADVANCED_BREP_SHAPE_REPRESENTATION('',(#297),#473);
#20=CYLINDRICAL_SURFACE('',#310,12.5);
#21=CYLINDRICAL_SURFACE('',#313,12.5);
#22=CIRCLE('',#304,12.5);
#23=CIRCLE('',#305,12.5);
#24=CIRCLE('',#311,12.5);
#25=CIRCLE('',#314,12.5);
#26=ORIENTED_EDGE('',*,*,#98,.F.);
#27=ORIENTED_EDGE('',*,*,#99,.F.);
#28=ORIENTED_EDGE('',*,*,#100,.F.);
#29=ORIENTED_EDGE('',*,*,#101,.F.);
#30=ORIENTED_EDGE('',*,*,#102,.F.);
#31=ORIENTED_EDGE('',*,*,#103,.F.);
#32=ORIENTED_EDGE('',*,*,#104,.T.);
#33=ORIENTED_EDGE('',*,*,#105,.T.);
#34=ORIENTED_EDGE('',*,*,#106,.F.);
#35=ORIENTED_EDGE('',*,*,#105,.F.);
#36=ORIENTED_EDGE('',*,*,#107,.T.);
#37=ORIENTED_EDGE('',*,*,#108,.T.);
#38=ORIENTED_EDGE('',*,*,#109,.T.);
#39=ORIENTED_EDGE('',*,*,#110,.T.);
#40=ORIENTED_EDGE('',*,*,#111,.T.);
#41=ORIENTED_EDGE('',*,*,#112,.T.);
#42=ORIENTED_EDGE('',*,*,#113,.F.);
#43=ORIENTED_EDGE('',*,*,#108,.F.);
#44=ORIENTED_EDGE('',*,*,#114,.T.);
#45=ORIENTED_EDGE('',*,*,#115,.T.);
#46=ORIENTED_EDGE('',*,*,#116,.F.);
#47=ORIENTED_EDGE('',*,*,#115,.F.);
#48=ORIENTED_EDGE('',*,*,#117,.T.);
#49=ORIENTED_EDGE('',*,*,#103,.T.);
#50=ORIENTED_EDGE('',*,*,#104,.F.);
#51=ORIENTED_EDGE('',*,*,#117,.F.);
#52=ORIENTED_EDGE('',*,*,#114,.F.);
#53=ORIENTED_EDGE('',*,*,#107,.F.);
#54=ORIENTED_EDGE('',*,*,#102,.T.);
#55=ORIENTED_EDGE('',*,*,#106,.T.);
#56=ORIENTED_EDGE('',*,*,#113,.T.);
#57=ORIENTED_EDGE('',*,*,#116,.T.);
#58=ORIENTED_EDGE('',*,*,#110,.F.);
#59=ORIENTED_EDGE('',*,*,#118,.F.);
#60=ORIENTED_EDGE('',*,*,#119,.T.);
#61=ORIENTED_EDGE('',*,*,#120,.T.);
#62=ORIENTED_EDGE('',*,*,#111,.F.);
#63=ORIENTED_EDGE('',*,*,#120,.F.);
#64=ORIENTED_EDGE('',*,*,#121,.T.);
#65=ORIENTED_EDGE('',*,*,#122,.T.);
#66=ORIENTED_EDGE('',*,*,#112,.F.);
#67=ORIENTED_EDGE('',*,*,#122,.F.);
#68=ORIENTED_EDGE('',*,*,#123,.T.);
#69=ORIENTED_EDGE('',*,*,#124,.T.);
#70=ORIENTED_EDGE('',*,*,#109,.F.);
#71=ORIENTED_EDGE('',*,*,#124,.F.);
#72=ORIENTED_EDGE('',*,*,#125,.T.);
#73=ORIENTED_EDGE('',*,*,#118,.T.);
#74=ORIENTED_EDGE('',*,*,#119,.F.);
#75=ORIENTED_EDGE('',*,*,#125,.F.);
#76=ORIENTED_EDGE('',*,*,#123,.F.);
#77=ORIENTED_EDGE('',*,*,#121,.F.);
#78=ORIENTED_EDGE('',*,*,#98,.T.);
#79=ORIENTED_EDGE('',*,*,#126,.F.);
#80=ORIENTED_EDGE('',*,*,#127,.F.);
#81=ORIENTED_EDGE('',*,*,#128,.T.);
#82=ORIENTED_EDGE('',*,*,#101,.T.);
#83=ORIENTED_EDGE('',*,*,#129,.F.);
#84=ORIENTED_EDGE('',*,*,#130,.F.);
#85=ORIENTED_EDGE('',*,*,#126,.T.);
#86=ORIENTED_EDGE('',*,*,#100,.T.);
#87=ORIENTED_EDGE('',*,*,#131,.F.);
#88=ORIENTED_EDGE('',*,*,#132,.F.);
#89=ORIENTED_EDGE('',*,*,#129,.T.);
#90=ORIENTED_EDGE('',*,*,#99,.T.);
#91=ORIENTED_EDGE('',*,*,#128,.F.);
#92=ORIENTED_EDGE('',*,*,#133,.F.);
#93=ORIENTED_EDGE('',*,*,#131,.T.);
#94=ORIENTED_EDGE('',*,*,#127,.T.);
#95=ORIENTED_EDGE('',*,*,#130,.T.);
#96=ORIENTED_EDGE('',*,*,#132,.T.);
#97=ORIENTED_EDGE('',*,*,#133,.T.);
#98=EDGE_CURVE('',#134,#135,#158,.T.);
#99=EDGE_CURVE('',#136,#134,#159,.T.);
#100=EDGE_CURVE('',#137,#136,#160,.T.);
#101=EDGE_CURVE('',#135,#137,#161,.T.);
#102=EDGE_CURVE('',#138,#139,#162,.T.);
#103=EDGE_CURVE('',#140,#138,#163,.T.);
#104=EDGE_CURVE('',#140,#141,#164,.T.);
#105=EDGE_CURVE('',#141,#139,#165,.T.);
#106=EDGE_CURVE('',#139,#142,#166,.T.);
#107=EDGE_CURVE('',#141,#143,#167,.T.);
#108=EDGE_CURVE('',#143,#142,#168,.T.);
#109=EDGE_CURVE('',#144,#145,#22,.T.);
#110=EDGE_CURVE('',#145,#146,#169,.T.);
#111=EDGE_CURVE('',#146,#147,#23,.T.);
#112=EDGE_CURVE('',#147,#144,#170,.T.);
#113=EDGE_CURVE('',#142,#148,#171,.T.);
#114=EDGE_CURVE('',#143,#149,#172,.T.);
#115=EDGE_CURVE('',#149,#148,#173,.T.);
#116=EDGE_CURVE('',#148,#138,#174,.T.);
#117=EDGE_CURVE('',#149,#140,#175,.T.);
#118=EDGE_CURVE('',#150,#145,#176,.T.);
#119=EDGE_CURVE('',#150,#151,#177,.T.);
#120=EDGE_CURVE('',#151,#146,#178,.T.);
#121=EDGE_CURVE('',#151,#152,#24,.T.);
#122=EDGE_CURVE('',#152,#147,#179,.T.);
#123=EDGE_CURVE('',#152,#153,#180,.T.);
#124=EDGE_CURVE('',#153,#144,#181,.T.);
#125=EDGE_CURVE('',#153,#150,#25,.T.);
#126=EDGE_CURVE('',#154,#135,#182,.T.);
#127=EDGE_CURVE('',#155,#154,#183,.T.);
#128=EDGE_CURVE('',#155,#134,#184,.T.);
#129=EDGE_CURVE('',#156,#137,#185,.T.);
#130=EDGE_CURVE('',#154,#156,#186,.T.);
#131=EDGE_CURVE('',#157,#136,#187,.T.);
#132=EDGE_CURVE('',#156,#157,#188,.T.);
#133=EDGE_CURVE('',#157,#155,#189,.T.);
#134=VERTEX_POINT('',#398);
#135=VERTEX_POINT('',#399);
#136=VERTEX_POINT('',#401);
#137=VERTEX_POINT('',#403);
#138=VERTEX_POINT('',#406);
#139=VERTEX_POINT('',#407);
#140=VERTEX_POINT('',#409);
#141=VERTEX_POINT('',#411);
#142=VERTEX_POINT('',#415);
#143=VERTEX_POINT('',#417);
#144=VERTEX_POINT('',#421);
#145=VERTEX_POINT('',#422);
#146=VERTEX_POINT('',#424);
#147=VERTEX_POINT('',#426);
#148=VERTEX_POINT('',#429);
#149=VERTEX_POINT('',#431);
#150=VERTEX_POINT('',#440);
#151=VERTEX_POINT('',#442);
#152=VERTEX_POINT('',#446);
#153=VERTEX_POINT('',#450);
#154=VERTEX_POINT('',#457);
#155=VERTEX_POINT('',#459);
#156=VERTEX_POINT('',#463);
#157=VERTEX_POINT('',#467);
#158=LINE('',#397,#190);
#159=LINE('',#400,#191);
#160=LINE('',#402,#192);
#161=LINE('',#404,#193);
#162=LINE('',#405,#194);
#163=LINE('',#408,#195);
#164=LINE('',#410,#196);
#165=LINE('',#412,#197);
#166=LINE('',#414,#198);
#167=LINE('',#416,#199);
#168=LINE('',#418,#200);
#169=LINE('',#423,#201);
#170=LINE('',#427,#202);
#171=LINE('',#428,#203);
#172=LINE('',#430,#204);
#173=LINE('',#432,#205);
#174=LINE('',#434,#206);
#175=LINE('',#435,#207);
#176=LINE('',#439,#208);
#177=LINE('',#441,#209);
#178=LINE('',#443,#210);
#179=LINE('',#447,#211);
#180=LINE('',#449,#212);
#181=LINE('',#451,#213);
#182=LINE('',#456,#214);
#183=LINE('',#458,#215);
#184=LINE('',#460,#216);
#185=LINE('',#462,#217);
#186=LINE('',#464,#218);
#187=LINE('',#466,#219);
#188=LINE('',#468,#220);
#189=LINE('',#470,#221);
#190=VECTOR('',#325,1000.);
#191=VECTOR('',#326,1000.);
#192=VECTOR('',#327,1000.);
#193=VECTOR('',#328,1000.);
#194=VECTOR('',#329,1000.);
#195=VECTOR('',#330,1000.);
#196=VECTOR('',#331,1000.);
#197=VECTOR('',#332,1000.);
#198=VECTOR('',#335,1000.);
#199=VECTOR('',#336,1000.);
#200=VECTOR('',#337,1000.);
#201=VECTOR('',#342,1000.);
#202=VECTOR('',#345,1000.);
#203=VECTOR('',#346,1000.);
#204=VECTOR('',#347,1000.);
#205=VECTOR('',#348,1000.);
#206=VECTOR('',#351,1000.);
#207=VECTOR('',#352,1000.);
#208=VECTOR('',#359,1000.);
#209=VECTOR('',#360,1000.);
#210=VECTOR('',#361,1000.);
#211=VECTOR('',#366,1000.);
#212=VECTOR('',#369,1000.);
#213=VECTOR('',#370,1000.);
#214=VECTOR('',#379,1000.);
#215=VECTOR('',#380,1000.);
#216=VECTOR('',#381,1000.);
#217=VECTOR('',#384,1000.);
#218=VECTOR('',#385,1000.);
#219=VECTOR('',#388,1000.);
#220=VECTOR('',#389,1000.);
#221=VECTOR('',#392,1000.);
#222=EDGE_LOOP('',(#26,#27,#28,#29));
#223=EDGE_LOOP('',(#30,#31,#32,#33));
#224=EDGE_LOOP('',(#34,#35,#36,#37));
#225=EDGE_LOOP('',(#38,#39,#40,#41));
#226=EDGE_LOOP('',(#42,#43,#44,#45));
#227=EDGE_LOOP('',(#46,#47,#48,#49));
#228=EDGE_LOOP('',(#50,#51,#52,#53));
#229=EDGE_LOOP('',(#54,#55,#56,#57));
#230=EDGE_LOOP('',(#58,#59,#60,#61));
#231=EDGE_LOOP('',(#62,#63,#64,#65));
#232=EDGE_LOOP('',(#66,#67,#68,#69));
#233=EDGE_LOOP('',(#70,#71,#72,#73));
#234=EDGE_LOOP('',(#74,#75,#76,#77));
#235=EDGE_LOOP('',(#78,#79,#80,#81));
#236=EDGE_LOOP('',(#82,#83,#84,#85));
#237=EDGE_LOOP('',(#86,#87,#88,#89));
#238=EDGE_LOOP('',(#90,#91,#92,#93));
#239=EDGE_LOOP('',(#94,#95,#96,#97));
#240=FACE_BOUND('',#222,.T.);
#241=FACE_BOUND('',#223,.T.);
#242=FACE_BOUND('',#224,.T.);
#243=FACE_BOUND('',#225,.T.);
#244=FACE_BOUND('',#226,.T.);
#245=FACE_BOUND('',#227,.T.);
#246=FACE_BOUND('',#228,.T.);
#247=FACE_BOUND('',#229,.T.);
#248=FACE_BOUND('',#230,.T.);
#249=FACE_BOUND('',#231,.T.);
#250=FACE_BOUND('',#232,.T.);
#251=FACE_BOUND('',#233,.T.);
#252=FACE_BOUND('',#234,.T.);
#253=FACE_BOUND('',#235,.T.);
#254=FACE_BOUND('',#236,.T.);
#255=FACE_BOUND('',#237,.T.);
#256=FACE_BOUND('',#238,.T.);
#257=FACE_BOUND('',#239,.T.);
#258=PLANE('',#301);
#259=PLANE('',#302);
#260=PLANE('',#303);
#261=PLANE('',#306);
#262=PLANE('',#307);
#263=PLANE('',#308);
#264=PLANE('',#309);
#265=PLANE('',#312);
#266=PLANE('',#315);
#267=PLANE('',#316);
#268=PLANE('',#317);
#269=PLANE('',#318);
#270=PLANE('',#319);
#271=PLANE('',#320);
#272=ADVANCED_FACE('',(#240,#241),#258,.T.);
#273=ADVANCED_FACE('',(#242),#259,.T.);
#274=ADVANCED_FACE('',(#243,#244),#260,.T.);
#275=ADVANCED_FACE('',(#245),#261,.T.);
#276=ADVANCED_FACE('',(#246),#262,.F.);
#277=ADVANCED_FACE('',(#247),#263,.T.);
#278=ADVANCED_FACE('',(#248),#264,.T.);
#279=ADVANCED_FACE('',(#249),#20,.F.);
#280=ADVANCED_FACE('',(#250),#265,.T.);
#281=ADVANCED_FACE('',(#251),#21,.F.);
#282=ADVANCED_FACE('',(#252),#266,.F.);
#283=ADVANCED_FACE('',(#253),#267,.F.);
#284=ADVANCED_FACE('',(#254),#268,.F.);
#285=ADVANCED_FACE('',(#255),#269,.F.);
#286=ADVANCED_FACE('',(#256),#270,.F.);
#287=ADVANCED_FACE('',(#257),#271,.T.);
#288=CLOSED_SHELL('',(#272,#273,#274,#275,#276,#277,#278,#279,#280,#281,
#282,#283,#284,#285,#286,#287));
#289=STYLED_ITEM('',(#290),#297);
#290=PRESENTATION_STYLE_ASSIGNMENT((#291));
#291=SURFACE_STYLE_USAGE(.BOTH.,#292);
#292=SURFACE_SIDE_STYLE('',(#293));
#293=SURFACE_STYLE_FILL_AREA(#294);
#294=FILL_AREA_STYLE('',(#295));
#295=FILL_AREA_STYLE_COLOUR('',#296);
#296=COLOUR_RGB('',0.645180702209473,0.678915679454803,0.699999988079071);
#297=MANIFOLD_SOLID_BREP('',#288);
#298=SHAPE_DEFINITION_REPRESENTATION(#478,#299);
#299=SHAPE_REPRESENTATION('SNP 1013',(#300),#473);
#300=AXIS2_PLACEMENT_3D('',#395,#321,#322);
#301=AXIS2_PLACEMENT_3D('',#396,#323,#324);
#302=AXIS2_PLACEMENT_3D('',#413,#333,#334);
#303=AXIS2_PLACEMENT_3D('',#419,#338,#339);
#304=AXIS2_PLACEMENT_3D('',#420,#340,#341);
#305=AXIS2_PLACEMENT_3D('',#425,#343,#344);
#306=AXIS2_PLACEMENT_3D('',#433,#349,#350);
#307=AXIS2_PLACEMENT_3D('',#436,#353,#354);
#308=AXIS2_PLACEMENT_3D('',#437,#355,#356);
#309=AXIS2_PLACEMENT_3D('',#438,#357,#358);
#310=AXIS2_PLACEMENT_3D('',#444,#362,#363);
#311=AXIS2_PLACEMENT_3D('',#445,#364,#365);
#312=AXIS2_PLACEMENT_3D('',#448,#367,#368);
#313=AXIS2_PLACEMENT_3D('',#452,#371,#372);
#314=AXIS2_PLACEMENT_3D('',#453,#373,#374);
#315=AXIS2_PLACEMENT_3D('',#454,#375,#376);
#316=AXIS2_PLACEMENT_3D('',#455,#377,#378);
#317=AXIS2_PLACEMENT_3D('',#461,#382,#383);
#318=AXIS2_PLACEMENT_3D('',#465,#386,#387);
#319=AXIS2_PLACEMENT_3D('',#469,#390,#391);
#320=AXIS2_PLACEMENT_3D('',#471,#393,#394);
#321=DIRECTION('',(0.,0.,1.));
#322=DIRECTION('',(1.,0.,0.));
#323=DIRECTION('',(0.,0.,-1.));
#324=DIRECTION('',(-1.,0.,0.));
#325=DIRECTION('',(-1.,0.,0.));
#326=DIRECTION('',(0.,-1.,0.));
#327=DIRECTION('',(1.,0.,0.));
#328=DIRECTION('',(0.,1.,0.));
#329=DIRECTION('',(1.,0.,0.));
#330=DIRECTION('',(0.,-1.,0.));
#331=DIRECTION('',(1.,0.,0.));
#332=DIRECTION('',(0.,-1.,0.));
#333=DIRECTION('',(1.,0.,0.));
#334=DIRECTION('',(0.,0.,-1.));
#335=DIRECTION('',(0.,0.,1.));
#336=DIRECTION('',(0.,0.,1.));
#337=DIRECTION('',(0.,-1.,0.));
#338=DIRECTION('',(0.,0.,1.));
#339=DIRECTION('',(1.,0.,0.));
#340=DIRECTION('',(0.,0.,-1.));
#341=DIRECTION('',(0.,-1.,0.));
#342=DIRECTION('',(0.,-1.,0.));
#343=DIRECTION('',(0.,0.,-1.));
#344=DIRECTION('',(0.,1.,0.));
#345=DIRECTION('',(0.,1.,0.));
#346=DIRECTION('',(-1.,0.,0.));
#347=DIRECTION('',(-1.,0.,0.));
#348=DIRECTION('',(0.,-1.,0.));
#349=DIRECTION('',(-1.,0.,0.));
#350=DIRECTION('',(0.,0.,1.));
#351=DIRECTION('',(0.,0.,-1.));
#352=DIRECTION('',(0.,0.,-1.));
#353=DIRECTION('',(0.,-1.,0.));
#354=DIRECTION('',(0.,0.,-1.));
#355=DIRECTION('',(0.,-1.,0.));
#356=DIRECTION('',(0.,0.,-1.));
#357=DIRECTION('',(-1.,0.,0.));
#358=DIRECTION('',(0.,0.,1.));
#359=DIRECTION('',(0.,0.,1.));
#360=DIRECTION('',(0.,-1.,0.));
#361=DIRECTION('',(0.,0.,1.));
#362=DIRECTION('',(0.,0.,1.));
#363=DIRECTION('',(1.,0.,0.));
#364=DIRECTION('',(0.,0.,-1.));
#365=DIRECTION('',(0.,1.,0.));
#366=DIRECTION('',(0.,0.,1.));
#367=DIRECTION('',(1.,0.,0.));
#368=DIRECTION('',(0.,0.,-1.));
#369=DIRECTION('',(0.,1.,0.));
#370=DIRECTION('',(0.,0.,1.));
#371=DIRECTION('',(0.,0.,1.));
#372=DIRECTION('',(1.,0.,0.));
#373=DIRECTION('',(0.,0.,-1.));
#374=DIRECTION('',(0.,-1.,0.));
#375=DIRECTION('',(0.,0.,-1.));
#376=DIRECTION('',(-1.,0.,0.));
#377=DIRECTION('',(0.,-1.,0.));
#378=DIRECTION('',(0.,0.,-1.));
#379=DIRECTION('',(0.,0.,-1.));
#380=DIRECTION('',(-1.,0.,0.));
#381=DIRECTION('',(0.,0.,-1.));
#382=DIRECTION('',(-1.,0.,0.));
#383=DIRECTION('',(0.,0.,1.));
#384=DIRECTION('',(0.,0.,-1.));
#385=DIRECTION('',(0.,1.,0.));
#386=DIRECTION('',(0.,1.,0.));
#387=DIRECTION('',(0.,0.,1.));
#388=DIRECTION('',(0.,0.,-1.));
#389=DIRECTION('',(1.,0.,0.));
#390=DIRECTION('',(1.,0.,0.));
#391=DIRECTION('',(0.,0.,-1.));
#392=DIRECTION('',(0.,-1.,0.));
#393=DIRECTION('',(0.,0.,-1.));
#394=DIRECTION('',(-1.,0.,0.));
#395=CARTESIAN_POINT('',(0.,0.,0.));
#396=CARTESIAN_POINT('',(-31.,330.,-31.));
#397=CARTESIAN_POINT('',(5.75,2.,-31.));
#398=CARTESIAN_POINT('',(5.75,2.,-31.));
#399=CARTESIAN_POINT('',(-5.75,2.,-31.));
#400=CARTESIAN_POINT('',(5.75,328.,-31.));
#401=CARTESIAN_POINT('',(5.75,328.,-31.));
#402=CARTESIAN_POINT('',(-5.75,328.,-31.));
#403=CARTESIAN_POINT('',(-5.75,328.,-31.));
#404=CARTESIAN_POINT('',(-5.75,2.,-31.));
#405=CARTESIAN_POINT('',(-31.,0.,-31.));
#406=CARTESIAN_POINT('',(-31.,0.,-31.));
#407=CARTESIAN_POINT('',(31.,0.,-31.));
#408=CARTESIAN_POINT('',(-31.,330.,-31.));
#409=CARTESIAN_POINT('',(-31.,330.,-31.));
#410=CARTESIAN_POINT('',(-31.,330.,-31.));
#411=CARTESIAN_POINT('',(31.,330.,-31.));
#412=CARTESIAN_POINT('',(31.,330.,-31.));
#413=CARTESIAN_POINT('',(31.,330.,-31.));
#414=CARTESIAN_POINT('',(31.,0.,-31.));
#415=CARTESIAN_POINT('',(31.,0.,31.));
#416=CARTESIAN_POINT('',(31.,330.,-31.));
#417=CARTESIAN_POINT('',(31.,330.,31.));
#418=CARTESIAN_POINT('',(31.,330.,31.));
#419=CARTESIAN_POINT('',(31.,330.,31.));
#420=CARTESIAN_POINT('',(0.,190.,31.));
#421=CARTESIAN_POINT('',(-12.5,190.,31.));
#422=CARTESIAN_POINT('',(12.5,190.,31.));
#423=CARTESIAN_POINT('',(12.5,190.,31.));
#424=CARTESIAN_POINT('',(12.5,140.,31.));
#425=CARTESIAN_POINT('',(0.,140.,31.));
#426=CARTESIAN_POINT('',(-12.5,140.,31.));
#427=CARTESIAN_POINT('',(-12.5,140.,31.));
#428=CARTESIAN_POINT('',(31.,0.,31.));
#429=CARTESIAN_POINT('',(-31.,0.,31.));
#430=CARTESIAN_POINT('',(31.,330.,31.));
#431=CARTESIAN_POINT('',(-31.,330.,31.));
#432=CARTESIAN_POINT('',(-31.,330.,31.));
#433=CARTESIAN_POINT('',(-31.,330.,31.));
#434=CARTESIAN_POINT('',(-31.,0.,31.));
#435=CARTESIAN_POINT('',(-31.,330.,31.));
#436=CARTESIAN_POINT('',(0.,330.,0.));
#437=CARTESIAN_POINT('',(0.,0.,0.));
#438=CARTESIAN_POINT('',(12.5,190.,29.));
#439=CARTESIAN_POINT('',(12.5,190.,29.));
#440=CARTESIAN_POINT('',(12.5,190.,29.));
#441=CARTESIAN_POINT('',(12.5,190.,29.));
#442=CARTESIAN_POINT('',(12.5,140.,29.));
#443=CARTESIAN_POINT('',(12.5,140.,29.));
#444=CARTESIAN_POINT('',(0.,140.,29.));
#445=CARTESIAN_POINT('',(0.,140.,29.));
#446=CARTESIAN_POINT('',(-12.5,140.,29.));
#447=CARTESIAN_POINT('',(-12.5,140.,29.));
#448=CARTESIAN_POINT('',(-12.5,140.,29.));
#449=CARTESIAN_POINT('',(-12.5,140.,29.));
#450=CARTESIAN_POINT('',(-12.5,190.,29.));
#451=CARTESIAN_POINT('',(-12.5,190.,29.));
#452=CARTESIAN_POINT('',(0.,190.,29.));
#453=CARTESIAN_POINT('',(0.,190.,29.));
#454=CARTESIAN_POINT('',(0.,140.,29.));
#455=CARTESIAN_POINT('',(5.75,2.,-21.));
#456=CARTESIAN_POINT('',(-5.75,2.,-21.));
#457=CARTESIAN_POINT('',(-5.75,2.,-21.));
#458=CARTESIAN_POINT('',(5.75,2.,-21.));
#459=CARTESIAN_POINT('',(5.75,2.,-21.));
#460=CARTESIAN_POINT('',(5.75,2.,-21.));
#461=CARTESIAN_POINT('',(-5.75,2.,-21.));
#462=CARTESIAN_POINT('',(-5.75,328.,-21.));
#463=CARTESIAN_POINT('',(-5.75,328.,-21.));
#464=CARTESIAN_POINT('',(-5.75,2.,-21.));
#465=CARTESIAN_POINT('',(-5.75,328.,-21.));
#466=CARTESIAN_POINT('',(5.75,328.,-21.));
#467=CARTESIAN_POINT('',(5.75,328.,-21.));
#468=CARTESIAN_POINT('',(-5.75,328.,-21.));
#469=CARTESIAN_POINT('',(5.75,328.,-21.));
#470=CARTESIAN_POINT('',(5.75,328.,-21.));
#471=CARTESIAN_POINT('',(0.,0.,-21.));
#472=MECHANICAL_DESIGN_GEOMETRIC_PRESENTATION_REPRESENTATION('',(#289),
#473);
#473=(
GEOMETRIC_REPRESENTATION_CONTEXT(3)
GLOBAL_UNCERTAINTY_ASSIGNED_CONTEXT((#474))
GLOBAL_UNIT_ASSIGNED_CONTEXT((#477,#476,#475))
REPRESENTATION_CONTEXT('SNP 1013','TOP_LEVEL_ASSEMBLY_PART')
);
#474=UNCERTAINTY_MEASURE_WITH_UNIT(LENGTH_MEASURE(0.005),#477,
'DISTANCE_ACCURACY_VALUE','Maximum Tolerance applied to model');
#475=(
NAMED_UNIT(*)
SI_UNIT($,.STERADIAN.)
SOLID_ANGLE_UNIT()
);
#476=(
NAMED_UNIT(*)
PLANE_ANGLE_UNIT()
SI_UNIT($,.RADIAN.)
);
#477=(
LENGTH_UNIT()
NAMED_UNIT(*)
SI_UNIT(.MILLI.,.METRE.)
);
#478=PRODUCT_DEFINITION_SHAPE('','',#479);
#479=PRODUCT_DEFINITION('','',#481,#480);
#480=PRODUCT_DEFINITION_CONTEXT('',#487,'design');
#481=PRODUCT_DEFINITION_FORMATION_WITH_SPECIFIED_SOURCE('','',#483,
 .NOT_KNOWN.);
#482=PRODUCT_RELATED_PRODUCT_CATEGORY('','',(#483));
#483=PRODUCT('SNP 1013','SNP 1013','SNP 1013',(#485));
#484=PRODUCT_CATEGORY('','');
#485=PRODUCT_CONTEXT('',#487,'mechanical');
#486=APPLICATION_PROTOCOL_DEFINITION('international standard',
'automotive_design',2010,#487);
#487=APPLICATION_CONTEXT(
'core data for automotive mechanical design processes');
ENDSEC;
END-ISO-10303-21;
