ISO-10303-21;
HEADER;
/* Generated by software containing ST-Developer
 * from STEP Tools, Inc. (www.steptools.com) 
 */
/* OPTION: strings as raw bytes, not using required /X/ escapes */

FILE_DESCRIPTION(
/* description */ ('Unknown'),
/* implementation_level */ '2;1');

FILE_NAME(
/* name */ 'SNP 1016.2 S LED 230V',
/* time_stamp */ '2018-06-19T09:05:04+02:00',
/* author */ ('Unknown'),
/* organization */ ('Unknown'),
/* preprocessor_version */ 'ST-DEVELOPER v16.7',
/* originating_system */ 'DEX',
/* authorisation */ $);

FILE_SCHEMA (('AUTOMOTIVE_DESIGN {1 0 10303 214 3 1 1}'));
ENDSEC;

DATA;
#10=PROPERTY_DEFINITION_REPRESENTATION(#14,#12);
#11=PROPERTY_DEFINITION_REPRESENTATION(#15,#13);
#12=REPRESENTATION('',(#16),#687);
#13=REPRESENTATION('',(#17),#687);
#14=PROPERTY_DEFINITION('pmi validation property','',#692);
#15=PROPERTY_DEFINITION('pmi validation property','',#692);
#16=VALUE_REPRESENTATION_ITEM('number of annotations',COUNT_MEASURE(0.));
#17=VALUE_REPRESENTATION_ITEM('number of views',COUNT_MEASURE(0.));
#18=SHAPE_REPRESENTATION_RELATIONSHIP('','',#411,#19);
#19=ADVANCED_BREP_SHAPE_REPRESENTATION('',(#409),#687);
#20=TOROIDAL_SURFACE('',#444,4.50000000000001,3.);
#21=TOROIDAL_SURFACE('',#445,4.50000000000001,3.);
#22=CYLINDRICAL_SURFACE('',#426,7.50000000000001);
#23=CYLINDRICAL_SURFACE('',#431,7.50000000000001);
#24=CYLINDRICAL_SURFACE('',#436,2.5);
#25=CYLINDRICAL_SURFACE('',#440,2.5);
#26=CYLINDRICAL_SURFACE('',#446,1.25);
#27=CYLINDRICAL_SURFACE('',#448,1.25);
#28=CYLINDRICAL_SURFACE('',#450,5.);
#29=CYLINDRICAL_SURFACE('',#455,5.);
#30=CIRCLE('',#423,7.50000000000001);
#31=CIRCLE('',#424,7.50000000000001);
#32=CIRCLE('',#427,7.50000000000001);
#33=CIRCLE('',#429,4.50000000000001);
#34=CIRCLE('',#430,2.5);
#35=CIRCLE('',#432,7.50000000000001);
#36=CIRCLE('',#434,4.50000000000001);
#37=CIRCLE('',#435,2.5);
#38=CIRCLE('',#437,2.5);
#39=CIRCLE('',#439,1.25);
#40=CIRCLE('',#441,2.5);
#41=CIRCLE('',#443,1.25);
#42=CIRCLE('',#447,1.25);
#43=CIRCLE('',#449,1.25);
#44=CIRCLE('',#451,5.);
#45=CIRCLE('',#452,5.);
#46=CIRCLE('',#456,5.);
#47=CIRCLE('',#457,5.);
#48=ORIENTED_EDGE('',*,*,#132,.F.);
#49=ORIENTED_EDGE('',*,*,#133,.F.);
#50=ORIENTED_EDGE('',*,*,#134,.T.);
#51=ORIENTED_EDGE('',*,*,#135,.T.);
#52=ORIENTED_EDGE('',*,*,#136,.F.);
#53=ORIENTED_EDGE('',*,*,#137,.F.);
#54=ORIENTED_EDGE('',*,*,#138,.T.);
#55=ORIENTED_EDGE('',*,*,#139,.T.);
#56=ORIENTED_EDGE('',*,*,#140,.F.);
#57=ORIENTED_EDGE('',*,*,#139,.F.);
#58=ORIENTED_EDGE('',*,*,#141,.T.);
#59=ORIENTED_EDGE('',*,*,#133,.T.);
#60=ORIENTED_EDGE('',*,*,#134,.F.);
#61=ORIENTED_EDGE('',*,*,#141,.F.);
#62=ORIENTED_EDGE('',*,*,#138,.F.);
#63=ORIENTED_EDGE('',*,*,#142,.F.);
#64=ORIENTED_EDGE('',*,*,#132,.T.);
#65=ORIENTED_EDGE('',*,*,#143,.T.);
#66=ORIENTED_EDGE('',*,*,#136,.T.);
#67=ORIENTED_EDGE('',*,*,#140,.T.);
#68=ORIENTED_EDGE('',*,*,#144,.T.);
#69=ORIENTED_EDGE('',*,*,#145,.F.);
#70=ORIENTED_EDGE('',*,*,#146,.F.);
#71=ORIENTED_EDGE('',*,*,#147,.T.);
#72=ORIENTED_EDGE('',*,*,#148,.T.);
#73=ORIENTED_EDGE('',*,*,#149,.F.);
#74=ORIENTED_EDGE('',*,*,#150,.F.);
#75=ORIENTED_EDGE('',*,*,#145,.T.);
#76=ORIENTED_EDGE('',*,*,#151,.T.);
#77=ORIENTED_EDGE('',*,*,#152,.F.);
#78=ORIENTED_EDGE('',*,*,#153,.F.);
#79=ORIENTED_EDGE('',*,*,#149,.T.);
#80=ORIENTED_EDGE('',*,*,#154,.T.);
#81=ORIENTED_EDGE('',*,*,#147,.F.);
#82=ORIENTED_EDGE('',*,*,#155,.F.);
#83=ORIENTED_EDGE('',*,*,#152,.T.);
#84=ORIENTED_EDGE('',*,*,#156,.F.);
#85=ORIENTED_EDGE('',*,*,#157,.F.);
#86=ORIENTED_EDGE('',*,*,#146,.T.);
#87=ORIENTED_EDGE('',*,*,#150,.T.);
#88=ORIENTED_EDGE('',*,*,#153,.T.);
#89=ORIENTED_EDGE('',*,*,#155,.T.);
#90=ORIENTED_EDGE('',*,*,#143,.F.);
#91=ORIENTED_EDGE('',*,*,#135,.F.);
#92=ORIENTED_EDGE('',*,*,#142,.T.);
#93=ORIENTED_EDGE('',*,*,#137,.T.);
#94=ORIENTED_EDGE('',*,*,#144,.F.);
#95=ORIENTED_EDGE('',*,*,#154,.F.);
#96=ORIENTED_EDGE('',*,*,#151,.F.);
#97=ORIENTED_EDGE('',*,*,#148,.F.);
#98=ORIENTED_EDGE('',*,*,#158,.T.);
#99=ORIENTED_EDGE('',*,*,#157,.T.);
#100=ORIENTED_EDGE('',*,*,#159,.T.);
#101=ORIENTED_EDGE('',*,*,#160,.T.);
#102=ORIENTED_EDGE('',*,*,#161,.T.);
#103=ORIENTED_EDGE('',*,*,#156,.T.);
#104=ORIENTED_EDGE('',*,*,#162,.T.);
#105=ORIENTED_EDGE('',*,*,#163,.T.);
#106=ORIENTED_EDGE('',*,*,#164,.T.);
#107=ORIENTED_EDGE('',*,*,#163,.F.);
#108=ORIENTED_EDGE('',*,*,#165,.T.);
#109=ORIENTED_EDGE('',*,*,#164,.F.);
#110=ORIENTED_EDGE('',*,*,#166,.T.);
#111=ORIENTED_EDGE('',*,*,#160,.F.);
#112=ORIENTED_EDGE('',*,*,#167,.T.);
#113=ORIENTED_EDGE('',*,*,#166,.F.);
#114=ORIENTED_EDGE('',*,*,#162,.F.);
#115=ORIENTED_EDGE('',*,*,#161,.F.);
#116=ORIENTED_EDGE('',*,*,#159,.F.);
#117=ORIENTED_EDGE('',*,*,#158,.F.);
#118=ORIENTED_EDGE('',*,*,#168,.T.);
#119=ORIENTED_EDGE('',*,*,#165,.F.);
#120=ORIENTED_EDGE('',*,*,#169,.T.);
#121=ORIENTED_EDGE('',*,*,#167,.F.);
#122=ORIENTED_EDGE('',*,*,#170,.T.);
#123=ORIENTED_EDGE('',*,*,#171,.F.);
#124=ORIENTED_EDGE('',*,*,#170,.F.);
#125=ORIENTED_EDGE('',*,*,#168,.F.);
#126=ORIENTED_EDGE('',*,*,#171,.T.);
#127=ORIENTED_EDGE('',*,*,#172,.T.);
#128=ORIENTED_EDGE('',*,*,#173,.F.);
#129=ORIENTED_EDGE('',*,*,#172,.F.);
#130=ORIENTED_EDGE('',*,*,#169,.F.);
#131=ORIENTED_EDGE('',*,*,#173,.T.);
#132=EDGE_CURVE('',#174,#175,#208,.T.);
#133=EDGE_CURVE('',#176,#174,#209,.T.);
#134=EDGE_CURVE('',#176,#177,#210,.T.);
#135=EDGE_CURVE('',#177,#175,#211,.T.);
#136=EDGE_CURVE('',#178,#179,#212,.T.);
#137=EDGE_CURVE('',#180,#178,#213,.T.);
#138=EDGE_CURVE('',#180,#181,#214,.T.);
#139=EDGE_CURVE('',#181,#179,#215,.T.);
#140=EDGE_CURVE('',#179,#174,#216,.T.);
#141=EDGE_CURVE('',#181,#176,#217,.T.);
#142=EDGE_CURVE('',#177,#180,#218,.T.);
#143=EDGE_CURVE('',#175,#178,#219,.T.);
#144=EDGE_CURVE('',#182,#183,#220,.T.);
#145=EDGE_CURVE('',#184,#183,#221,.T.);
#146=EDGE_CURVE('',#185,#184,#222,.T.);
#147=EDGE_CURVE('',#185,#182,#223,.T.);
#148=EDGE_CURVE('',#183,#186,#224,.T.);
#149=EDGE_CURVE('',#187,#186,#225,.T.);
#150=EDGE_CURVE('',#184,#187,#226,.T.);
#151=EDGE_CURVE('',#186,#188,#227,.T.);
#152=EDGE_CURVE('',#189,#188,#228,.T.);
#153=EDGE_CURVE('',#187,#189,#229,.T.);
#154=EDGE_CURVE('',#188,#182,#230,.T.);
#155=EDGE_CURVE('',#189,#185,#231,.T.);
#156=EDGE_CURVE('',#190,#190,#30,.T.);
#157=EDGE_CURVE('',#191,#191,#31,.T.);
#158=EDGE_CURVE('',#192,#192,#32,.T.);
#159=EDGE_CURVE('',#193,#193,#33,.F.);
#160=EDGE_CURVE('',#194,#194,#34,.T.);
#161=EDGE_CURVE('',#195,#195,#35,.T.);
#162=EDGE_CURVE('',#196,#196,#36,.F.);
#163=EDGE_CURVE('',#197,#197,#37,.T.);
#164=EDGE_CURVE('',#198,#198,#38,.T.);
#165=EDGE_CURVE('',#199,#199,#39,.T.);
#166=EDGE_CURVE('',#200,#200,#40,.T.);
#167=EDGE_CURVE('',#201,#201,#41,.T.);
#168=EDGE_CURVE('',#202,#202,#42,.T.);
#169=EDGE_CURVE('',#203,#203,#43,.T.);
#170=EDGE_CURVE('',#204,#204,#44,.T.);
#171=EDGE_CURVE('',#205,#205,#45,.T.);
#172=EDGE_CURVE('',#206,#206,#46,.T.);
#173=EDGE_CURVE('',#207,#207,#47,.T.);
#174=VERTEX_POINT('',#583);
#175=VERTEX_POINT('',#584);
#176=VERTEX_POINT('',#586);
#177=VERTEX_POINT('',#588);
#178=VERTEX_POINT('',#592);
#179=VERTEX_POINT('',#593);
#180=VERTEX_POINT('',#595);
#181=VERTEX_POINT('',#597);
#182=VERTEX_POINT('',#608);
#183=VERTEX_POINT('',#609);
#184=VERTEX_POINT('',#611);
#185=VERTEX_POINT('',#613);
#186=VERTEX_POINT('',#617);
#187=VERTEX_POINT('',#619);
#188=VERTEX_POINT('',#623);
#189=VERTEX_POINT('',#625);
#190=VERTEX_POINT('',#632);
#191=VERTEX_POINT('',#634);
#192=VERTEX_POINT('',#638);
#193=VERTEX_POINT('',#641);
#194=VERTEX_POINT('',#643);
#195=VERTEX_POINT('',#646);
#196=VERTEX_POINT('',#649);
#197=VERTEX_POINT('',#651);
#198=VERTEX_POINT('',#654);
#199=VERTEX_POINT('',#657);
#200=VERTEX_POINT('',#660);
#201=VERTEX_POINT('',#663);
#202=VERTEX_POINT('',#668);
#203=VERTEX_POINT('',#671);
#204=VERTEX_POINT('',#674);
#205=VERTEX_POINT('',#676);
#206=VERTEX_POINT('',#681);
#207=VERTEX_POINT('',#683);
#208=LINE('',#582,#232);
#209=LINE('',#585,#233);
#210=LINE('',#587,#234);
#211=LINE('',#589,#235);
#212=LINE('',#591,#236);
#213=LINE('',#594,#237);
#214=LINE('',#596,#238);
#215=LINE('',#598,#239);
#216=LINE('',#600,#240);
#217=LINE('',#601,#241);
#218=LINE('',#603,#242);
#219=LINE('',#605,#243);
#220=LINE('',#607,#244);
#221=LINE('',#610,#245);
#222=LINE('',#612,#246);
#223=LINE('',#614,#247);
#224=LINE('',#616,#248);
#225=LINE('',#618,#249);
#226=LINE('',#620,#250);
#227=LINE('',#622,#251);
#228=LINE('',#624,#252);
#229=LINE('',#626,#253);
#230=LINE('',#628,#254);
#231=LINE('',#629,#255);
#232=VECTOR('',#464,1000.);
#233=VECTOR('',#465,1000.);
#234=VECTOR('',#466,1000.);
#235=VECTOR('',#467,1000.);
#236=VECTOR('',#470,1000.);
#237=VECTOR('',#471,1000.);
#238=VECTOR('',#472,1000.);
#239=VECTOR('',#473,1000.);
#240=VECTOR('',#476,1000.);
#241=VECTOR('',#477,1000.);
#242=VECTOR('',#480,1000.);
#243=VECTOR('',#483,1000.);
#244=VECTOR('',#486,1000.);
#245=VECTOR('',#487,1000.);
#246=VECTOR('',#488,1000.);
#247=VECTOR('',#489,1000.);
#248=VECTOR('',#492,1000.);
#249=VECTOR('',#493,1000.);
#250=VECTOR('',#494,1000.);
#251=VECTOR('',#497,1000.);
#252=VECTOR('',#498,1000.);
#253=VECTOR('',#499,1000.);
#254=VECTOR('',#502,1000.);
#255=VECTOR('',#503,1000.);
#256=EDGE_LOOP('',(#48,#49,#50,#51));
#257=EDGE_LOOP('',(#52,#53,#54,#55));
#258=EDGE_LOOP('',(#56,#57,#58,#59));
#259=EDGE_LOOP('',(#60,#61,#62,#63));
#260=EDGE_LOOP('',(#64,#65,#66,#67));
#261=EDGE_LOOP('',(#68,#69,#70,#71));
#262=EDGE_LOOP('',(#72,#73,#74,#75));
#263=EDGE_LOOP('',(#76,#77,#78,#79));
#264=EDGE_LOOP('',(#80,#81,#82,#83));
#265=EDGE_LOOP('',(#84));
#266=EDGE_LOOP('',(#85));
#267=EDGE_LOOP('',(#86,#87,#88,#89));
#268=EDGE_LOOP('',(#90,#91,#92,#93));
#269=EDGE_LOOP('',(#94,#95,#96,#97));
#270=EDGE_LOOP('',(#98));
#271=EDGE_LOOP('',(#99));
#272=EDGE_LOOP('',(#100));
#273=EDGE_LOOP('',(#101));
#274=EDGE_LOOP('',(#102));
#275=EDGE_LOOP('',(#103));
#276=EDGE_LOOP('',(#104));
#277=EDGE_LOOP('',(#105));
#278=EDGE_LOOP('',(#106));
#279=EDGE_LOOP('',(#107));
#280=EDGE_LOOP('',(#108));
#281=EDGE_LOOP('',(#109));
#282=EDGE_LOOP('',(#110));
#283=EDGE_LOOP('',(#111));
#284=EDGE_LOOP('',(#112));
#285=EDGE_LOOP('',(#113));
#286=EDGE_LOOP('',(#114));
#287=EDGE_LOOP('',(#115));
#288=EDGE_LOOP('',(#116));
#289=EDGE_LOOP('',(#117));
#290=EDGE_LOOP('',(#118));
#291=EDGE_LOOP('',(#119));
#292=EDGE_LOOP('',(#120));
#293=EDGE_LOOP('',(#121));
#294=EDGE_LOOP('',(#122));
#295=EDGE_LOOP('',(#123));
#296=EDGE_LOOP('',(#124));
#297=EDGE_LOOP('',(#125));
#298=EDGE_LOOP('',(#126));
#299=EDGE_LOOP('',(#127));
#300=EDGE_LOOP('',(#128));
#301=EDGE_LOOP('',(#129));
#302=EDGE_LOOP('',(#130));
#303=EDGE_LOOP('',(#131));
#304=FACE_BOUND('',#256,.T.);
#305=FACE_BOUND('',#257,.T.);
#306=FACE_BOUND('',#258,.T.);
#307=FACE_BOUND('',#259,.T.);
#308=FACE_BOUND('',#260,.T.);
#309=FACE_BOUND('',#261,.T.);
#310=FACE_BOUND('',#262,.T.);
#311=FACE_BOUND('',#263,.T.);
#312=FACE_BOUND('',#264,.T.);
#313=FACE_BOUND('',#265,.T.);
#314=FACE_BOUND('',#266,.T.);
#315=FACE_BOUND('',#267,.T.);
#316=FACE_BOUND('',#268,.T.);
#317=FACE_BOUND('',#269,.T.);
#318=FACE_BOUND('',#270,.T.);
#319=FACE_BOUND('',#271,.T.);
#320=FACE_BOUND('',#272,.T.);
#321=FACE_BOUND('',#273,.T.);
#322=FACE_BOUND('',#274,.T.);
#323=FACE_BOUND('',#275,.T.);
#324=FACE_BOUND('',#276,.T.);
#325=FACE_BOUND('',#277,.T.);
#326=FACE_BOUND('',#278,.T.);
#327=FACE_BOUND('',#279,.T.);
#328=FACE_BOUND('',#280,.T.);
#329=FACE_BOUND('',#281,.T.);
#330=FACE_BOUND('',#282,.T.);
#331=FACE_BOUND('',#283,.T.);
#332=FACE_BOUND('',#284,.T.);
#333=FACE_BOUND('',#285,.T.);
#334=FACE_BOUND('',#286,.T.);
#335=FACE_BOUND('',#287,.T.);
#336=FACE_BOUND('',#288,.T.);
#337=FACE_BOUND('',#289,.T.);
#338=FACE_BOUND('',#290,.T.);
#339=FACE_BOUND('',#291,.T.);
#340=FACE_BOUND('',#292,.T.);
#341=FACE_BOUND('',#293,.T.);
#342=FACE_BOUND('',#294,.T.);
#343=FACE_BOUND('',#295,.T.);
#344=FACE_BOUND('',#296,.T.);
#345=FACE_BOUND('',#297,.T.);
#346=FACE_BOUND('',#298,.T.);
#347=FACE_BOUND('',#299,.T.);
#348=FACE_BOUND('',#300,.T.);
#349=FACE_BOUND('',#301,.T.);
#350=FACE_BOUND('',#302,.T.);
#351=FACE_BOUND('',#303,.T.);
#352=PLANE('',#413);
#353=PLANE('',#414);
#354=PLANE('',#415);
#355=PLANE('',#416);
#356=PLANE('',#417);
#357=PLANE('',#418);
#358=PLANE('',#419);
#359=PLANE('',#420);
#360=PLANE('',#421);
#361=PLANE('',#422);
#362=PLANE('',#425);
#363=PLANE('',#428);
#364=PLANE('',#433);
#365=PLANE('',#438);
#366=PLANE('',#442);
#367=PLANE('',#453);
#368=PLANE('',#454);
#369=PLANE('',#458);
#370=PLANE('',#459);
#371=ADVANCED_FACE('',(#304),#352,.T.);
#372=ADVANCED_FACE('',(#305),#353,.T.);
#373=ADVANCED_FACE('',(#306),#354,.T.);
#374=ADVANCED_FACE('',(#307),#355,.F.);
#375=ADVANCED_FACE('',(#308),#356,.T.);
#376=ADVANCED_FACE('',(#309),#357,.F.);
#377=ADVANCED_FACE('',(#310),#358,.F.);
#378=ADVANCED_FACE('',(#311),#359,.F.);
#379=ADVANCED_FACE('',(#312),#360,.F.);
#380=ADVANCED_FACE('',(#313,#314,#315),#361,.T.);
#381=ADVANCED_FACE('',(#316,#317),#362,.F.);
#382=ADVANCED_FACE('',(#318,#319),#22,.T.);
#383=ADVANCED_FACE('',(#320,#321),#363,.F.);
#384=ADVANCED_FACE('',(#322,#323),#23,.T.);
#385=ADVANCED_FACE('',(#324,#325),#364,.F.);
#386=ADVANCED_FACE('',(#326,#327),#24,.T.);
#387=ADVANCED_FACE('',(#328,#329),#365,.F.);
#388=ADVANCED_FACE('',(#330,#331),#25,.T.);
#389=ADVANCED_FACE('',(#332,#333),#366,.F.);
#390=ADVANCED_FACE('',(#334,#335),#20,.T.);
#391=ADVANCED_FACE('',(#336,#337),#21,.T.);
#392=ADVANCED_FACE('',(#338,#339),#26,.T.);
#393=ADVANCED_FACE('',(#340,#341),#27,.T.);
#394=ADVANCED_FACE('',(#342,#343),#28,.T.);
#395=ADVANCED_FACE('',(#344),#367,.F.);
#396=ADVANCED_FACE('',(#345,#346),#368,.T.);
#397=ADVANCED_FACE('',(#347,#348),#29,.T.);
#398=ADVANCED_FACE('',(#349),#369,.F.);
#399=ADVANCED_FACE('',(#350,#351),#370,.T.);
#400=CLOSED_SHELL('',(#371,#372,#373,#374,#375,#376,#377,#378,#379,#380,
#381,#382,#383,#384,#385,#386,#387,#388,#389,#390,#391,#392,#393,#394,#395,
#396,#397,#398,#399));
#401=STYLED_ITEM('',(#402),#409);
#402=PRESENTATION_STYLE_ASSIGNMENT((#403));
#403=SURFACE_STYLE_USAGE(.BOTH.,#404);
#404=SURFACE_SIDE_STYLE('',(#405));
#405=SURFACE_STYLE_FILL_AREA(#406);
#406=FILL_AREA_STYLE('',(#407));
#407=FILL_AREA_STYLE_COLOUR('',#408);
#408=COLOUR_RGB('',0.645180702209473,0.678915679454803,0.699999988079071);
#409=MANIFOLD_SOLID_BREP('',#400);
#410=SHAPE_DEFINITION_REPRESENTATION(#692,#411);
#411=SHAPE_REPRESENTATION('Part11',(#412),#687);
#412=AXIS2_PLACEMENT_3D('',#580,#460,#461);
#413=AXIS2_PLACEMENT_3D('',#581,#462,#463);
#414=AXIS2_PLACEMENT_3D('',#590,#468,#469);
#415=AXIS2_PLACEMENT_3D('',#599,#474,#475);
#416=AXIS2_PLACEMENT_3D('',#602,#478,#479);
#417=AXIS2_PLACEMENT_3D('',#604,#481,#482);
#418=AXIS2_PLACEMENT_3D('',#606,#484,#485);
#419=AXIS2_PLACEMENT_3D('',#615,#490,#491);
#420=AXIS2_PLACEMENT_3D('',#621,#495,#496);
#421=AXIS2_PLACEMENT_3D('',#627,#500,#501);
#422=AXIS2_PLACEMENT_3D('',#630,#504,#505);
#423=AXIS2_PLACEMENT_3D('',#631,#506,#507);
#424=AXIS2_PLACEMENT_3D('',#633,#508,#509);
#425=AXIS2_PLACEMENT_3D('',#635,#510,#511);
#426=AXIS2_PLACEMENT_3D('',#636,#512,#513);
#427=AXIS2_PLACEMENT_3D('',#637,#514,#515);
#428=AXIS2_PLACEMENT_3D('',#639,#516,#517);
#429=AXIS2_PLACEMENT_3D('',#640,#518,#519);
#430=AXIS2_PLACEMENT_3D('',#642,#520,#521);
#431=AXIS2_PLACEMENT_3D('',#644,#522,#523);
#432=AXIS2_PLACEMENT_3D('',#645,#524,#525);
#433=AXIS2_PLACEMENT_3D('',#647,#526,#527);
#434=AXIS2_PLACEMENT_3D('',#648,#528,#529);
#435=AXIS2_PLACEMENT_3D('',#650,#530,#531);
#436=AXIS2_PLACEMENT_3D('',#652,#532,#533);
#437=AXIS2_PLACEMENT_3D('',#653,#534,#535);
#438=AXIS2_PLACEMENT_3D('',#655,#536,#537);
#439=AXIS2_PLACEMENT_3D('',#656,#538,#539);
#440=AXIS2_PLACEMENT_3D('',#658,#540,#541);
#441=AXIS2_PLACEMENT_3D('',#659,#542,#543);
#442=AXIS2_PLACEMENT_3D('',#661,#544,#545);
#443=AXIS2_PLACEMENT_3D('',#662,#546,#547);
#444=AXIS2_PLACEMENT_3D('',#664,#548,#549);
#445=AXIS2_PLACEMENT_3D('',#665,#550,#551);
#446=AXIS2_PLACEMENT_3D('',#666,#552,#553);
#447=AXIS2_PLACEMENT_3D('',#667,#554,#555);
#448=AXIS2_PLACEMENT_3D('',#669,#556,#557);
#449=AXIS2_PLACEMENT_3D('',#670,#558,#559);
#450=AXIS2_PLACEMENT_3D('',#672,#560,#561);
#451=AXIS2_PLACEMENT_3D('',#673,#562,#563);
#452=AXIS2_PLACEMENT_3D('',#675,#564,#565);
#453=AXIS2_PLACEMENT_3D('',#677,#566,#567);
#454=AXIS2_PLACEMENT_3D('',#678,#568,#569);
#455=AXIS2_PLACEMENT_3D('',#679,#570,#571);
#456=AXIS2_PLACEMENT_3D('',#680,#572,#573);
#457=AXIS2_PLACEMENT_3D('',#682,#574,#575);
#458=AXIS2_PLACEMENT_3D('',#684,#576,#577);
#459=AXIS2_PLACEMENT_3D('',#685,#578,#579);
#460=DIRECTION('',(0.,0.,1.));
#461=DIRECTION('',(1.,0.,0.));
#462=DIRECTION('',(1.,0.,0.));
#463=DIRECTION('',(0.,0.,-1.));
#464=DIRECTION('',(0.,0.,1.));
#465=DIRECTION('',(0.,-1.,0.));
#466=DIRECTION('',(0.,0.,1.));
#467=DIRECTION('',(0.,-1.,0.));
#468=DIRECTION('',(-1.,0.,-9.25185853854298E-17));
#469=DIRECTION('',(-9.25185853854298E-17,0.,1.));
#470=DIRECTION('',(9.25185853854298E-17,0.,-1.));
#471=DIRECTION('',(0.,-1.,0.));
#472=DIRECTION('',(9.25185853854298E-17,0.,-1.));
#473=DIRECTION('',(0.,-1.,0.));
#474=DIRECTION('',(1.11022302462516E-16,0.,-1.));
#475=DIRECTION('',(-1.,0.,-1.11022302462516E-16));
#476=DIRECTION('',(1.,0.,1.11022302462516E-16));
#477=DIRECTION('',(1.,0.,1.11022302462516E-16));
#478=DIRECTION('',(0.,-1.,0.));
#479=DIRECTION('',(0.,0.,-1.));
#480=DIRECTION('',(-1.,0.,-1.11022302462516E-16));
#481=DIRECTION('',(0.,-1.,0.));
#482=DIRECTION('',(0.,0.,-1.));
#483=DIRECTION('',(-1.,0.,-1.11022302462516E-16));
#484=DIRECTION('',(-1.,0.,0.));
#485=DIRECTION('',(0.,0.,1.));
#486=DIRECTION('',(0.,1.,0.));
#487=DIRECTION('',(0.,0.,-1.));
#488=DIRECTION('',(0.,1.,0.));
#489=DIRECTION('',(0.,0.,-1.));
#490=DIRECTION('',(0.,-1.,0.));
#491=DIRECTION('',(0.,0.,-1.));
#492=DIRECTION('',(-1.,0.,0.));
#493=DIRECTION('',(0.,0.,-1.));
#494=DIRECTION('',(-1.,0.,0.));
#495=DIRECTION('',(1.,0.,0.));
#496=DIRECTION('',(0.,0.,-1.));
#497=DIRECTION('',(0.,-1.,0.));
#498=DIRECTION('',(0.,0.,-1.));
#499=DIRECTION('',(0.,-1.,0.));
#500=DIRECTION('',(0.,1.,0.));
#501=DIRECTION('',(0.,0.,1.));
#502=DIRECTION('',(1.,0.,0.));
#503=DIRECTION('',(1.,0.,0.));
#504=DIRECTION('',(0.,0.,1.));
#505=DIRECTION('',(1.,0.,0.));
#506=DIRECTION('',(0.,0.,1.));
#507=DIRECTION('',(1.,0.,0.));
#508=DIRECTION('',(0.,0.,1.));
#509=DIRECTION('',(1.,0.,0.));
#510=DIRECTION('',(0.,0.,1.));
#511=DIRECTION('',(1.,0.,0.));
#512=DIRECTION('',(0.,0.,-1.));
#513=DIRECTION('',(-1.,0.,0.));
#514=DIRECTION('',(0.,0.,-1.));
#515=DIRECTION('',(-1.,0.,0.));
#516=DIRECTION('',(0.,0.,-1.));
#517=DIRECTION('',(-1.,0.,0.));
#518=DIRECTION('',(0.,0.,-1.));
#519=DIRECTION('',(-1.,0.,0.));
#520=DIRECTION('',(0.,0.,-1.));
#521=DIRECTION('',(1.,0.,0.));
#522=DIRECTION('',(0.,0.,-1.));
#523=DIRECTION('',(-1.,0.,0.));
#524=DIRECTION('',(0.,0.,-1.));
#525=DIRECTION('',(-1.,0.,0.));
#526=DIRECTION('',(0.,0.,-1.));
#527=DIRECTION('',(-1.,0.,0.));
#528=DIRECTION('',(0.,0.,-1.));
#529=DIRECTION('',(-1.,0.,0.));
#530=DIRECTION('',(0.,0.,-1.));
#531=DIRECTION('',(1.,0.,0.));
#532=DIRECTION('',(0.,0.,-1.));
#533=DIRECTION('',(-1.,0.,0.));
#534=DIRECTION('',(0.,0.,-1.));
#535=DIRECTION('',(1.,0.,0.));
#536=DIRECTION('',(0.,0.,-1.));
#537=DIRECTION('',(-1.,0.,0.));
#538=DIRECTION('',(0.,0.,-1.));
#539=DIRECTION('',(1.,0.,0.));
#540=DIRECTION('',(0.,0.,-1.));
#541=DIRECTION('',(-1.,0.,0.));
#542=DIRECTION('',(0.,0.,-1.));
#543=DIRECTION('',(1.,0.,0.));
#544=DIRECTION('',(0.,0.,-1.));
#545=DIRECTION('',(-1.,0.,0.));
#546=DIRECTION('',(0.,0.,-1.));
#547=DIRECTION('',(1.,0.,0.));
#548=DIRECTION('',(0.,0.,-1.));
#549=DIRECTION('',(-1.,0.,0.));
#550=DIRECTION('',(0.,0.,-1.));
#551=DIRECTION('',(-1.,0.,0.));
#552=DIRECTION('',(0.,0.,-1.));
#553=DIRECTION('',(-1.,0.,0.));
#554=DIRECTION('',(0.,0.,-1.));
#555=DIRECTION('',(1.,0.,0.));
#556=DIRECTION('',(0.,0.,-1.));
#557=DIRECTION('',(-1.,0.,0.));
#558=DIRECTION('',(0.,0.,-1.));
#559=DIRECTION('',(1.,0.,0.));
#560=DIRECTION('',(0.,0.,-1.));
#561=DIRECTION('',(-1.,0.,0.));
#562=DIRECTION('',(0.,0.,-1.));
#563=DIRECTION('',(1.,0.,0.));
#564=DIRECTION('',(0.,0.,-1.));
#565=DIRECTION('',(1.,0.,0.));
#566=DIRECTION('',(0.,0.,-1.));
#567=DIRECTION('',(-1.,0.,0.));
#568=DIRECTION('',(0.,0.,-1.));
#569=DIRECTION('',(-1.,0.,0.));
#570=DIRECTION('',(0.,0.,-1.));
#571=DIRECTION('',(-1.,0.,0.));
#572=DIRECTION('',(0.,0.,-1.));
#573=DIRECTION('',(1.,0.,0.));
#574=DIRECTION('',(0.,0.,-1.));
#575=DIRECTION('',(1.,0.,0.));
#576=DIRECTION('',(0.,0.,-1.));
#577=DIRECTION('',(-1.,0.,0.));
#578=DIRECTION('',(0.,0.,-1.));
#579=DIRECTION('',(-1.,0.,0.));
#580=CARTESIAN_POINT('',(0.,0.,0.));
#581=CARTESIAN_POINT('',(125.,14.5,-75.));
#582=CARTESIAN_POINT('',(125.,0.,-75.));
#583=CARTESIAN_POINT('',(125.,0.,-75.));
#584=CARTESIAN_POINT('',(125.,0.,75.));
#585=CARTESIAN_POINT('',(125.,14.5,-75.));
#586=CARTESIAN_POINT('',(125.,14.5,-75.));
#587=CARTESIAN_POINT('',(125.,14.5,-75.));
#588=CARTESIAN_POINT('',(125.,14.5,75.));
#589=CARTESIAN_POINT('',(125.,14.5,75.));
#590=CARTESIAN_POINT('',(-125.,14.5,74.9999999999999));
#591=CARTESIAN_POINT('',(-125.,0.,74.9999999999999));
#592=CARTESIAN_POINT('',(-125.,0.,74.9999999999999));
#593=CARTESIAN_POINT('',(-125.,0.,-75.));
#594=CARTESIAN_POINT('',(-125.,14.5,74.9999999999999));
#595=CARTESIAN_POINT('',(-125.,14.5,74.9999999999999));
#596=CARTESIAN_POINT('',(-125.,14.5,74.9999999999999));
#597=CARTESIAN_POINT('',(-125.,14.5,-75.));
#598=CARTESIAN_POINT('',(-125.,14.5,-75.));
#599=CARTESIAN_POINT('',(-125.,14.5,-75.));
#600=CARTESIAN_POINT('',(-125.,0.,-75.));
#601=CARTESIAN_POINT('',(-125.,14.5,-75.));
#602=CARTESIAN_POINT('',(0.,14.5,0.));
#603=CARTESIAN_POINT('',(125.,14.5,75.));
#604=CARTESIAN_POINT('',(0.,0.,0.));
#605=CARTESIAN_POINT('',(125.,0.,75.));
#606=CARTESIAN_POINT('',(137.5,-19.75,128.));
#607=CARTESIAN_POINT('',(137.5,-19.75,75.));
#608=CARTESIAN_POINT('',(137.5,-19.75,75.));
#609=CARTESIAN_POINT('',(137.5,34.25,75.));
#610=CARTESIAN_POINT('',(137.5,34.25,128.));
#611=CARTESIAN_POINT('',(137.5,34.25,128.));
#612=CARTESIAN_POINT('',(137.5,-19.75,128.));
#613=CARTESIAN_POINT('',(137.5,-19.75,128.));
#614=CARTESIAN_POINT('',(137.5,-19.75,128.));
#615=CARTESIAN_POINT('',(137.5,34.25,128.));
#616=CARTESIAN_POINT('',(137.5,34.25,75.));
#617=CARTESIAN_POINT('',(-137.5,34.25,75.));
#618=CARTESIAN_POINT('',(-137.5,34.25,128.));
#619=CARTESIAN_POINT('',(-137.5,34.25,128.));
#620=CARTESIAN_POINT('',(137.5,34.25,128.));
#621=CARTESIAN_POINT('',(-137.5,34.25,128.));
#622=CARTESIAN_POINT('',(-137.5,34.25,75.));
#623=CARTESIAN_POINT('',(-137.5,-19.75,75.));
#624=CARTESIAN_POINT('',(-137.5,-19.75,128.));
#625=CARTESIAN_POINT('',(-137.5,-19.75,128.));
#626=CARTESIAN_POINT('',(-137.5,34.25,128.));
#627=CARTESIAN_POINT('',(-137.5,-19.75,128.));
#628=CARTESIAN_POINT('',(-137.5,-19.75,75.));
#629=CARTESIAN_POINT('',(-137.5,-19.75,128.));
#630=CARTESIAN_POINT('',(0.,0.,128.));
#631=CARTESIAN_POINT('',(-121.5,7.24999999999998,128.));
#632=CARTESIAN_POINT('',(-114.,7.24999999999998,128.));
#633=CARTESIAN_POINT('',(121.5,7.24999999999998,128.));
#634=CARTESIAN_POINT('',(129.,7.24999999999998,128.));
#635=CARTESIAN_POINT('',(0.,0.,75.));
#636=CARTESIAN_POINT('',(121.5,7.24999999999998,133.));
#637=CARTESIAN_POINT('',(121.5,7.24999999999998,130.));
#638=CARTESIAN_POINT('',(114.,7.24999999999998,130.));
#639=CARTESIAN_POINT('',(121.5,7.24999999999998,133.));
#640=CARTESIAN_POINT('',(121.5,7.24999999999998,133.));
#641=CARTESIAN_POINT('',(117.,7.24999999999998,133.));
#642=CARTESIAN_POINT('',(121.5,7.24999999999998,133.));
#643=CARTESIAN_POINT('',(124.,7.24999999999998,133.));
#644=CARTESIAN_POINT('',(-121.5,7.24999999999998,133.));
#645=CARTESIAN_POINT('',(-121.5,7.24999999999998,130.));
#646=CARTESIAN_POINT('',(-129.,7.24999999999998,130.));
#647=CARTESIAN_POINT('',(-121.5,7.24999999999998,133.));
#648=CARTESIAN_POINT('',(-121.5,7.24999999999998,133.));
#649=CARTESIAN_POINT('',(-126.,7.24999999999998,133.));
#650=CARTESIAN_POINT('',(-121.5,7.24999999999998,133.));
#651=CARTESIAN_POINT('',(-119.,7.24999999999998,133.));
#652=CARTESIAN_POINT('',(-121.5,7.24999999999998,143.));
#653=CARTESIAN_POINT('',(-121.5,7.24999999999998,143.));
#654=CARTESIAN_POINT('',(-119.,7.24999999999998,143.));
#655=CARTESIAN_POINT('',(-121.5,7.24999999999998,143.));
#656=CARTESIAN_POINT('',(-121.5,7.24999999999998,143.));
#657=CARTESIAN_POINT('',(-120.25,7.24999999999998,143.));
#658=CARTESIAN_POINT('',(121.5,7.24999999999998,143.));
#659=CARTESIAN_POINT('',(121.5,7.24999999999998,143.));
#660=CARTESIAN_POINT('',(124.,7.24999999999998,143.));
#661=CARTESIAN_POINT('',(121.5,7.24999999999998,143.));
#662=CARTESIAN_POINT('',(121.5,7.24999999999998,143.));
#663=CARTESIAN_POINT('',(122.75,7.24999999999998,143.));
#664=CARTESIAN_POINT('',(-121.5,7.24999999999998,130.));
#665=CARTESIAN_POINT('',(121.5,7.24999999999998,130.));
#666=CARTESIAN_POINT('',(-121.5,7.24999999999998,543.));
#667=CARTESIAN_POINT('',(-121.5,7.24999999999998,543.));
#668=CARTESIAN_POINT('',(-120.25,7.24999999999998,543.));
#669=CARTESIAN_POINT('',(121.5,7.24999999999998,543.));
#670=CARTESIAN_POINT('',(121.5,7.24999999999998,543.));
#671=CARTESIAN_POINT('',(122.75,7.24999999999998,543.));
#672=CARTESIAN_POINT('',(-121.5,7.24999999999998,563.));
#673=CARTESIAN_POINT('',(-121.5,7.24999999999998,563.));
#674=CARTESIAN_POINT('',(-116.5,7.24999999999998,563.));
#675=CARTESIAN_POINT('',(-121.5,7.24999999999998,543.));
#676=CARTESIAN_POINT('',(-116.5,7.24999999999998,543.));
#677=CARTESIAN_POINT('',(-121.5,7.24999999999998,563.));
#678=CARTESIAN_POINT('',(-121.5,7.24999999999998,543.));
#679=CARTESIAN_POINT('',(121.5,7.24999999999998,563.));
#680=CARTESIAN_POINT('',(121.5,7.24999999999998,563.));
#681=CARTESIAN_POINT('',(126.5,7.24999999999998,563.));
#682=CARTESIAN_POINT('',(121.5,7.24999999999998,543.));
#683=CARTESIAN_POINT('',(126.5,7.24999999999998,543.));
#684=CARTESIAN_POINT('',(121.5,7.24999999999998,563.));
#685=CARTESIAN_POINT('',(121.5,7.24999999999998,543.));
#686=MECHANICAL_DESIGN_GEOMETRIC_PRESENTATION_REPRESENTATION('',(#401),
#687);
#687=(
GEOMETRIC_REPRESENTATION_CONTEXT(3)
GLOBAL_UNCERTAINTY_ASSIGNED_CONTEXT((#688))
GLOBAL_UNIT_ASSIGNED_CONTEXT((#691,#690,#689))
REPRESENTATION_CONTEXT('Part11','TOP_LEVEL_ASSEMBLY_PART')
);
#688=UNCERTAINTY_MEASURE_WITH_UNIT(LENGTH_MEASURE(0.005),#691,
'DISTANCE_ACCURACY_VALUE','Maximum Tolerance applied to model');
#689=(
NAMED_UNIT(*)
SI_UNIT($,.STERADIAN.)
SOLID_ANGLE_UNIT()
);
#690=(
NAMED_UNIT(*)
PLANE_ANGLE_UNIT()
SI_UNIT($,.RADIAN.)
);
#691=(
LENGTH_UNIT()
NAMED_UNIT(*)
SI_UNIT(.MILLI.,.METRE.)
);
#692=PRODUCT_DEFINITION_SHAPE('','',#693);
#693=PRODUCT_DEFINITION('','',#695,#694);
#694=PRODUCT_DEFINITION_CONTEXT('',#701,'design');
#695=PRODUCT_DEFINITION_FORMATION_WITH_SPECIFIED_SOURCE('','',#697,
 .NOT_KNOWN.);
#696=PRODUCT_RELATED_PRODUCT_CATEGORY('','',(#697));
#697=PRODUCT('Part11','Part11','Part11',(#699));
#698=PRODUCT_CATEGORY('','');
#699=PRODUCT_CONTEXT('',#701,'mechanical');
#700=APPLICATION_PROTOCOL_DEFINITION('international standard',
'automotive_design',2010,#701);
#701=APPLICATION_CONTEXT(
'core data for automotive mechanical design processes');
ENDSEC;
END-ISO-10303-21;
