ISO-10303-21;
HEADER;
/* Generated by software containing ST-Developer
 * from STEP Tools, Inc. (www.steptools.com) 
 */
/* OPTION: strings as raw bytes, not using required /X/ escapes */

FILE_DESCRIPTION(
/* description */ ('Unknown'),
/* implementation_level */ '2;1');

FILE_NAME(
/* name */ 'SNP 1016.2 WA LED 230V',
/* time_stamp */ '2018-06-19T08:59:39+02:00',
/* author */ ('Unknown'),
/* organization */ ('Unknown'),
/* preprocessor_version */ 'ST-DEVELOPER v16.7',
/* originating_system */ 'DEX',
/* authorisation */ $);

FILE_SCHEMA (('AUTOMOTIVE_DESIGN {1 0 10303 214 3 1 1}'));
ENDSEC;

DATA;
#10=PROPERTY_DEFINITION_REPRESENTATION(#14,#12);
#11=PROPERTY_DEFINITION_REPRESENTATION(#15,#13);
#12=REPRESENTATION('',(#16),#573);
#13=REPRESENTATION('',(#17),#573);
#14=PROPERTY_DEFINITION('pmi validation property','',#578);
#15=PROPERTY_DEFINITION('pmi validation property','',#578);
#16=VALUE_REPRESENTATION_ITEM('number of annotations',COUNT_MEASURE(0.));
#17=VALUE_REPRESENTATION_ITEM('number of views',COUNT_MEASURE(0.));
#18=SHAPE_REPRESENTATION_RELATIONSHIP('','',#369,#19);
#19=ADVANCED_BREP_SHAPE_REPRESENTATION('',(#367),#573);
#20=ORIENTED_EDGE('',*,*,#112,.T.);
#21=ORIENTED_EDGE('',*,*,#113,.F.);
#22=ORIENTED_EDGE('',*,*,#114,.T.);
#23=ORIENTED_EDGE('',*,*,#115,.T.);
#24=ORIENTED_EDGE('',*,*,#116,.T.);
#25=ORIENTED_EDGE('',*,*,#117,.T.);
#26=ORIENTED_EDGE('',*,*,#118,.T.);
#27=ORIENTED_EDGE('',*,*,#119,.T.);
#28=ORIENTED_EDGE('',*,*,#120,.T.);
#29=ORIENTED_EDGE('',*,*,#121,.T.);
#30=ORIENTED_EDGE('',*,*,#122,.T.);
#31=ORIENTED_EDGE('',*,*,#123,.T.);
#32=ORIENTED_EDGE('',*,*,#124,.F.);
#33=ORIENTED_EDGE('',*,*,#125,.F.);
#34=ORIENTED_EDGE('',*,*,#126,.T.);
#35=ORIENTED_EDGE('',*,*,#127,.T.);
#36=ORIENTED_EDGE('',*,*,#128,.F.);
#37=ORIENTED_EDGE('',*,*,#129,.F.);
#38=ORIENTED_EDGE('',*,*,#130,.T.);
#39=ORIENTED_EDGE('',*,*,#131,.T.);
#40=ORIENTED_EDGE('',*,*,#132,.F.);
#41=ORIENTED_EDGE('',*,*,#131,.F.);
#42=ORIENTED_EDGE('',*,*,#133,.T.);
#43=ORIENTED_EDGE('',*,*,#125,.T.);
#44=ORIENTED_EDGE('',*,*,#126,.F.);
#45=ORIENTED_EDGE('',*,*,#133,.F.);
#46=ORIENTED_EDGE('',*,*,#130,.F.);
#47=ORIENTED_EDGE('',*,*,#134,.F.);
#48=ORIENTED_EDGE('',*,*,#124,.T.);
#49=ORIENTED_EDGE('',*,*,#135,.T.);
#50=ORIENTED_EDGE('',*,*,#128,.T.);
#51=ORIENTED_EDGE('',*,*,#132,.T.);
#52=ORIENTED_EDGE('',*,*,#136,.T.);
#53=ORIENTED_EDGE('',*,*,#137,.F.);
#54=ORIENTED_EDGE('',*,*,#120,.F.);
#55=ORIENTED_EDGE('',*,*,#115,.F.);
#56=ORIENTED_EDGE('',*,*,#116,.F.);
#57=ORIENTED_EDGE('',*,*,#138,.T.);
#58=ORIENTED_EDGE('',*,*,#139,.T.);
#59=ORIENTED_EDGE('',*,*,#140,.F.);
#60=ORIENTED_EDGE('',*,*,#121,.F.);
#61=ORIENTED_EDGE('',*,*,#137,.T.);
#62=ORIENTED_EDGE('',*,*,#141,.T.);
#63=ORIENTED_EDGE('',*,*,#142,.F.);
#64=ORIENTED_EDGE('',*,*,#122,.F.);
#65=ORIENTED_EDGE('',*,*,#140,.T.);
#66=ORIENTED_EDGE('',*,*,#143,.T.);
#67=ORIENTED_EDGE('',*,*,#138,.F.);
#68=ORIENTED_EDGE('',*,*,#123,.F.);
#69=ORIENTED_EDGE('',*,*,#142,.T.);
#70=ORIENTED_EDGE('',*,*,#135,.F.);
#71=ORIENTED_EDGE('',*,*,#127,.F.);
#72=ORIENTED_EDGE('',*,*,#134,.T.);
#73=ORIENTED_EDGE('',*,*,#129,.T.);
#74=ORIENTED_EDGE('',*,*,#136,.F.);
#75=ORIENTED_EDGE('',*,*,#143,.F.);
#76=ORIENTED_EDGE('',*,*,#141,.F.);
#77=ORIENTED_EDGE('',*,*,#139,.F.);
#78=ORIENTED_EDGE('',*,*,#144,.T.);
#79=ORIENTED_EDGE('',*,*,#145,.F.);
#80=ORIENTED_EDGE('',*,*,#146,.F.);
#81=ORIENTED_EDGE('',*,*,#147,.T.);
#82=ORIENTED_EDGE('',*,*,#114,.F.);
#83=ORIENTED_EDGE('',*,*,#148,.F.);
#84=ORIENTED_EDGE('',*,*,#149,.F.);
#85=ORIENTED_EDGE('',*,*,#144,.F.);
#86=ORIENTED_EDGE('',*,*,#150,.T.);
#87=ORIENTED_EDGE('',*,*,#151,.T.);
#88=ORIENTED_EDGE('',*,*,#117,.F.);
#89=ORIENTED_EDGE('',*,*,#118,.F.);
#90=ORIENTED_EDGE('',*,*,#151,.F.);
#91=ORIENTED_EDGE('',*,*,#152,.T.);
#92=ORIENTED_EDGE('',*,*,#153,.T.);
#93=ORIENTED_EDGE('',*,*,#119,.F.);
#94=ORIENTED_EDGE('',*,*,#153,.F.);
#95=ORIENTED_EDGE('',*,*,#154,.T.);
#96=ORIENTED_EDGE('',*,*,#146,.T.);
#97=ORIENTED_EDGE('',*,*,#155,.F.);
#98=ORIENTED_EDGE('',*,*,#156,.T.);
#99=ORIENTED_EDGE('',*,*,#112,.F.);
#100=ORIENTED_EDGE('',*,*,#147,.F.);
#101=ORIENTED_EDGE('',*,*,#154,.F.);
#102=ORIENTED_EDGE('',*,*,#152,.F.);
#103=ORIENTED_EDGE('',*,*,#150,.F.);
#104=ORIENTED_EDGE('',*,*,#113,.T.);
#105=ORIENTED_EDGE('',*,*,#156,.F.);
#106=ORIENTED_EDGE('',*,*,#157,.F.);
#107=ORIENTED_EDGE('',*,*,#148,.T.);
#108=ORIENTED_EDGE('',*,*,#149,.T.);
#109=ORIENTED_EDGE('',*,*,#157,.T.);
#110=ORIENTED_EDGE('',*,*,#155,.T.);
#111=ORIENTED_EDGE('',*,*,#145,.T.);
#112=EDGE_CURVE('',#158,#159,#188,.T.);
#113=EDGE_CURVE('',#160,#159,#189,.T.);
#114=EDGE_CURVE('',#160,#161,#190,.T.);
#115=EDGE_CURVE('',#161,#158,#191,.T.);
#116=EDGE_CURVE('',#162,#161,#192,.T.);
#117=EDGE_CURVE('',#161,#163,#193,.T.);
#118=EDGE_CURVE('',#163,#164,#194,.T.);
#119=EDGE_CURVE('',#164,#158,#195,.T.);
#120=EDGE_CURVE('',#158,#165,#196,.T.);
#121=EDGE_CURVE('',#165,#166,#197,.T.);
#122=EDGE_CURVE('',#166,#167,#198,.T.);
#123=EDGE_CURVE('',#167,#162,#199,.T.);
#124=EDGE_CURVE('',#168,#169,#200,.T.);
#125=EDGE_CURVE('',#170,#168,#201,.T.);
#126=EDGE_CURVE('',#170,#171,#202,.T.);
#127=EDGE_CURVE('',#171,#169,#203,.T.);
#128=EDGE_CURVE('',#172,#173,#204,.T.);
#129=EDGE_CURVE('',#174,#172,#205,.T.);
#130=EDGE_CURVE('',#174,#175,#206,.T.);
#131=EDGE_CURVE('',#175,#173,#207,.T.);
#132=EDGE_CURVE('',#173,#168,#208,.T.);
#133=EDGE_CURVE('',#175,#170,#209,.T.);
#134=EDGE_CURVE('',#171,#174,#210,.T.);
#135=EDGE_CURVE('',#169,#172,#211,.T.);
#136=EDGE_CURVE('',#176,#177,#212,.T.);
#137=EDGE_CURVE('',#165,#177,#213,.T.);
#138=EDGE_CURVE('',#162,#176,#214,.T.);
#139=EDGE_CURVE('',#177,#178,#215,.T.);
#140=EDGE_CURVE('',#166,#178,#216,.T.);
#141=EDGE_CURVE('',#178,#179,#217,.T.);
#142=EDGE_CURVE('',#167,#179,#218,.T.);
#143=EDGE_CURVE('',#179,#176,#219,.T.);
#144=EDGE_CURVE('',#180,#181,#220,.T.);
#145=EDGE_CURVE('',#182,#181,#221,.T.);
#146=EDGE_CURVE('',#183,#182,#222,.T.);
#147=EDGE_CURVE('',#183,#180,#223,.T.);
#148=EDGE_CURVE('',#184,#160,#224,.T.);
#149=EDGE_CURVE('',#181,#184,#225,.T.);
#150=EDGE_CURVE('',#180,#185,#226,.T.);
#151=EDGE_CURVE('',#185,#163,#227,.T.);
#152=EDGE_CURVE('',#185,#186,#228,.T.);
#153=EDGE_CURVE('',#186,#164,#229,.T.);
#154=EDGE_CURVE('',#186,#183,#230,.T.);
#155=EDGE_CURVE('',#187,#182,#231,.T.);
#156=EDGE_CURVE('',#187,#159,#232,.T.);
#157=EDGE_CURVE('',#184,#187,#233,.T.);
#158=VERTEX_POINT('',#479);
#159=VERTEX_POINT('',#480);
#160=VERTEX_POINT('',#482);
#161=VERTEX_POINT('',#484);
#162=VERTEX_POINT('',#488);
#163=VERTEX_POINT('',#490);
#164=VERTEX_POINT('',#492);
#165=VERTEX_POINT('',#495);
#166=VERTEX_POINT('',#497);
#167=VERTEX_POINT('',#499);
#168=VERTEX_POINT('',#503);
#169=VERTEX_POINT('',#504);
#170=VERTEX_POINT('',#506);
#171=VERTEX_POINT('',#508);
#172=VERTEX_POINT('',#512);
#173=VERTEX_POINT('',#513);
#174=VERTEX_POINT('',#515);
#175=VERTEX_POINT('',#517);
#176=VERTEX_POINT('',#528);
#177=VERTEX_POINT('',#529);
#178=VERTEX_POINT('',#534);
#179=VERTEX_POINT('',#538);
#180=VERTEX_POINT('',#545);
#181=VERTEX_POINT('',#546);
#182=VERTEX_POINT('',#548);
#183=VERTEX_POINT('',#550);
#184=VERTEX_POINT('',#554);
#185=VERTEX_POINT('',#557);
#186=VERTEX_POINT('',#561);
#187=VERTEX_POINT('',#566);
#188=LINE('',#478,#234);
#189=LINE('',#481,#235);
#190=LINE('',#483,#236);
#191=LINE('',#485,#237);
#192=LINE('',#487,#238);
#193=LINE('',#489,#239);
#194=LINE('',#491,#240);
#195=LINE('',#493,#241);
#196=LINE('',#494,#242);
#197=LINE('',#496,#243);
#198=LINE('',#498,#244);
#199=LINE('',#500,#245);
#200=LINE('',#502,#246);
#201=LINE('',#505,#247);
#202=LINE('',#507,#248);
#203=LINE('',#509,#249);
#204=LINE('',#511,#250);
#205=LINE('',#514,#251);
#206=LINE('',#516,#252);
#207=LINE('',#518,#253);
#208=LINE('',#520,#254);
#209=LINE('',#521,#255);
#210=LINE('',#523,#256);
#211=LINE('',#525,#257);
#212=LINE('',#527,#258);
#213=LINE('',#530,#259);
#214=LINE('',#531,#260);
#215=LINE('',#533,#261);
#216=LINE('',#535,#262);
#217=LINE('',#537,#263);
#218=LINE('',#539,#264);
#219=LINE('',#541,#265);
#220=LINE('',#544,#266);
#221=LINE('',#547,#267);
#222=LINE('',#549,#268);
#223=LINE('',#551,#269);
#224=LINE('',#553,#270);
#225=LINE('',#555,#271);
#226=LINE('',#556,#272);
#227=LINE('',#558,#273);
#228=LINE('',#560,#274);
#229=LINE('',#562,#275);
#230=LINE('',#564,#276);
#231=LINE('',#565,#277);
#232=LINE('',#567,#278);
#233=LINE('',#570,#279);
#234=VECTOR('',#394,1000.);
#235=VECTOR('',#395,1000.);
#236=VECTOR('',#396,1000.);
#237=VECTOR('',#397,1000.);
#238=VECTOR('',#400,1000.);
#239=VECTOR('',#401,1000.);
#240=VECTOR('',#402,1000.);
#241=VECTOR('',#403,1000.);
#242=VECTOR('',#404,1000.);
#243=VECTOR('',#405,1000.);
#244=VECTOR('',#406,1000.);
#245=VECTOR('',#407,1000.);
#246=VECTOR('',#410,1000.);
#247=VECTOR('',#411,1000.);
#248=VECTOR('',#412,1000.);
#249=VECTOR('',#413,1000.);
#250=VECTOR('',#416,1000.);
#251=VECTOR('',#417,1000.);
#252=VECTOR('',#418,1000.);
#253=VECTOR('',#419,1000.);
#254=VECTOR('',#422,1000.);
#255=VECTOR('',#423,1000.);
#256=VECTOR('',#426,1000.);
#257=VECTOR('',#429,1000.);
#258=VECTOR('',#432,1000.);
#259=VECTOR('',#433,1000.);
#260=VECTOR('',#434,1000.);
#261=VECTOR('',#437,1000.);
#262=VECTOR('',#438,1000.);
#263=VECTOR('',#441,1000.);
#264=VECTOR('',#442,1000.);
#265=VECTOR('',#445,1000.);
#266=VECTOR('',#450,1000.);
#267=VECTOR('',#451,1000.);
#268=VECTOR('',#452,1000.);
#269=VECTOR('',#453,1000.);
#270=VECTOR('',#456,1000.);
#271=VECTOR('',#457,1000.);
#272=VECTOR('',#458,1000.);
#273=VECTOR('',#459,1000.);
#274=VECTOR('',#462,1000.);
#275=VECTOR('',#463,1000.);
#276=VECTOR('',#466,1000.);
#277=VECTOR('',#467,1000.);
#278=VECTOR('',#468,1000.);
#279=VECTOR('',#473,1000.);
#280=EDGE_LOOP('',(#20,#21,#22,#23));
#281=EDGE_LOOP('',(#24,#25,#26,#27,#28,#29,#30,#31));
#282=EDGE_LOOP('',(#32,#33,#34,#35));
#283=EDGE_LOOP('',(#36,#37,#38,#39));
#284=EDGE_LOOP('',(#40,#41,#42,#43));
#285=EDGE_LOOP('',(#44,#45,#46,#47));
#286=EDGE_LOOP('',(#48,#49,#50,#51));
#287=EDGE_LOOP('',(#52,#53,#54,#55,#56,#57));
#288=EDGE_LOOP('',(#58,#59,#60,#61));
#289=EDGE_LOOP('',(#62,#63,#64,#65));
#290=EDGE_LOOP('',(#66,#67,#68,#69));
#291=EDGE_LOOP('',(#70,#71,#72,#73));
#292=EDGE_LOOP('',(#74,#75,#76,#77));
#293=EDGE_LOOP('',(#78,#79,#80,#81));
#294=EDGE_LOOP('',(#82,#83,#84,#85,#86,#87,#88));
#295=EDGE_LOOP('',(#89,#90,#91,#92));
#296=EDGE_LOOP('',(#93,#94,#95,#96,#97,#98,#99));
#297=EDGE_LOOP('',(#100,#101,#102,#103));
#298=EDGE_LOOP('',(#104,#105,#106,#107));
#299=EDGE_LOOP('',(#108,#109,#110,#111));
#300=FACE_BOUND('',#280,.T.);
#301=FACE_BOUND('',#281,.T.);
#302=FACE_BOUND('',#282,.T.);
#303=FACE_BOUND('',#283,.T.);
#304=FACE_BOUND('',#284,.T.);
#305=FACE_BOUND('',#285,.T.);
#306=FACE_BOUND('',#286,.T.);
#307=FACE_BOUND('',#287,.T.);
#308=FACE_BOUND('',#288,.T.);
#309=FACE_BOUND('',#289,.T.);
#310=FACE_BOUND('',#290,.T.);
#311=FACE_BOUND('',#291,.T.);
#312=FACE_BOUND('',#292,.T.);
#313=FACE_BOUND('',#293,.T.);
#314=FACE_BOUND('',#294,.T.);
#315=FACE_BOUND('',#295,.T.);
#316=FACE_BOUND('',#296,.T.);
#317=FACE_BOUND('',#297,.T.);
#318=FACE_BOUND('',#298,.T.);
#319=FACE_BOUND('',#299,.T.);
#320=PLANE('',#371);
#321=PLANE('',#372);
#322=PLANE('',#373);
#323=PLANE('',#374);
#324=PLANE('',#375);
#325=PLANE('',#376);
#326=PLANE('',#377);
#327=PLANE('',#378);
#328=PLANE('',#379);
#329=PLANE('',#380);
#330=PLANE('',#381);
#331=PLANE('',#382);
#332=PLANE('',#383);
#333=PLANE('',#384);
#334=PLANE('',#385);
#335=PLANE('',#386);
#336=PLANE('',#387);
#337=PLANE('',#388);
#338=PLANE('',#389);
#339=ADVANCED_FACE('',(#300),#320,.T.);
#340=ADVANCED_FACE('',(#301),#321,.T.);
#341=ADVANCED_FACE('',(#302),#322,.T.);
#342=ADVANCED_FACE('',(#303),#323,.T.);
#343=ADVANCED_FACE('',(#304),#324,.T.);
#344=ADVANCED_FACE('',(#305),#325,.F.);
#345=ADVANCED_FACE('',(#306),#326,.T.);
#346=ADVANCED_FACE('',(#307),#327,.F.);
#347=ADVANCED_FACE('',(#308),#328,.F.);
#348=ADVANCED_FACE('',(#309),#329,.F.);
#349=ADVANCED_FACE('',(#310),#330,.F.);
#350=ADVANCED_FACE('',(#311,#312),#331,.F.);
#351=ADVANCED_FACE('',(#313),#332,.T.);
#352=ADVANCED_FACE('',(#314),#333,.T.);
#353=ADVANCED_FACE('',(#315),#334,.T.);
#354=ADVANCED_FACE('',(#316),#335,.T.);
#355=ADVANCED_FACE('',(#317),#336,.F.);
#356=ADVANCED_FACE('',(#318),#337,.F.);
#357=ADVANCED_FACE('',(#319),#338,.T.);
#358=CLOSED_SHELL('',(#339,#340,#341,#342,#343,#344,#345,#346,#347,#348,
#349,#350,#351,#352,#353,#354,#355,#356,#357));
#359=STYLED_ITEM('',(#360),#367);
#360=PRESENTATION_STYLE_ASSIGNMENT((#361));
#361=SURFACE_STYLE_USAGE(.BOTH.,#362);
#362=SURFACE_SIDE_STYLE('',(#363));
#363=SURFACE_STYLE_FILL_AREA(#364);
#364=FILL_AREA_STYLE('',(#365));
#365=FILL_AREA_STYLE_COLOUR('',#366);
#366=COLOUR_RGB('',0.645180702209473,0.678915679454803,0.699999988079071);
#367=MANIFOLD_SOLID_BREP('',#358);
#368=SHAPE_DEFINITION_REPRESENTATION(#578,#369);
#369=SHAPE_REPRESENTATION('Part11',(#370),#573);
#370=AXIS2_PLACEMENT_3D('',#476,#390,#391);
#371=AXIS2_PLACEMENT_3D('',#477,#392,#393);
#372=AXIS2_PLACEMENT_3D('',#486,#398,#399);
#373=AXIS2_PLACEMENT_3D('',#501,#408,#409);
#374=AXIS2_PLACEMENT_3D('',#510,#414,#415);
#375=AXIS2_PLACEMENT_3D('',#519,#420,#421);
#376=AXIS2_PLACEMENT_3D('',#522,#424,#425);
#377=AXIS2_PLACEMENT_3D('',#524,#427,#428);
#378=AXIS2_PLACEMENT_3D('',#526,#430,#431);
#379=AXIS2_PLACEMENT_3D('',#532,#435,#436);
#380=AXIS2_PLACEMENT_3D('',#536,#439,#440);
#381=AXIS2_PLACEMENT_3D('',#540,#443,#444);
#382=AXIS2_PLACEMENT_3D('',#542,#446,#447);
#383=AXIS2_PLACEMENT_3D('',#543,#448,#449);
#384=AXIS2_PLACEMENT_3D('',#552,#454,#455);
#385=AXIS2_PLACEMENT_3D('',#559,#460,#461);
#386=AXIS2_PLACEMENT_3D('',#563,#464,#465);
#387=AXIS2_PLACEMENT_3D('',#568,#469,#470);
#388=AXIS2_PLACEMENT_3D('',#569,#471,#472);
#389=AXIS2_PLACEMENT_3D('',#571,#474,#475);
#390=DIRECTION('',(0.,0.,1.));
#391=DIRECTION('',(1.,0.,0.));
#392=DIRECTION('',(0.,0.,-1.));
#393=DIRECTION('',(-1.,0.,0.));
#394=DIRECTION('',(1.,1.26622151531154E-16,0.));
#395=DIRECTION('',(0.,1.,0.));
#396=DIRECTION('',(-1.,-1.20291043954596E-16,0.));
#397=DIRECTION('',(0.,1.,0.));
#398=DIRECTION('',(0.,0.,1.));
#399=DIRECTION('',(1.,0.,0.));
#400=DIRECTION('',(0.,1.,0.));
#401=DIRECTION('',(-1.,-1.20291043954596E-16,0.));
#402=DIRECTION('',(0.,1.,0.));
#403=DIRECTION('',(1.,1.26622151531154E-16,0.));
#404=DIRECTION('',(0.,1.,0.));
#405=DIRECTION('',(-1.,0.,0.));
#406=DIRECTION('',(0.,-1.,0.));
#407=DIRECTION('',(1.,0.,0.));
#408=DIRECTION('',(1.,0.,0.));
#409=DIRECTION('',(0.,0.,-1.));
#410=DIRECTION('',(0.,0.,1.));
#411=DIRECTION('',(0.,-1.,0.));
#412=DIRECTION('',(0.,0.,1.));
#413=DIRECTION('',(0.,-1.,0.));
#414=DIRECTION('',(-1.,0.,-9.25185853854298E-17));
#415=DIRECTION('',(-9.25185853854298E-17,0.,1.));
#416=DIRECTION('',(9.25185853854298E-17,0.,-1.));
#417=DIRECTION('',(0.,-1.,0.));
#418=DIRECTION('',(9.25185853854298E-17,0.,-1.));
#419=DIRECTION('',(0.,-1.,0.));
#420=DIRECTION('',(1.11022302462516E-16,0.,-1.));
#421=DIRECTION('',(-1.,0.,-1.11022302462516E-16));
#422=DIRECTION('',(1.,0.,1.11022302462516E-16));
#423=DIRECTION('',(1.,0.,1.11022302462516E-16));
#424=DIRECTION('',(0.,-1.,0.));
#425=DIRECTION('',(0.,0.,-1.));
#426=DIRECTION('',(-1.,0.,-1.11022302462516E-16));
#427=DIRECTION('',(0.,-1.,0.));
#428=DIRECTION('',(0.,0.,-1.));
#429=DIRECTION('',(-1.,0.,-1.11022302462516E-16));
#430=DIRECTION('',(-1.,0.,0.));
#431=DIRECTION('',(0.,0.,1.));
#432=DIRECTION('',(0.,1.,0.));
#433=DIRECTION('',(0.,0.,-1.));
#434=DIRECTION('',(0.,0.,-1.));
#435=DIRECTION('',(0.,-1.,0.));
#436=DIRECTION('',(0.,0.,-1.));
#437=DIRECTION('',(-1.,0.,0.));
#438=DIRECTION('',(0.,0.,-1.));
#439=DIRECTION('',(1.,0.,0.));
#440=DIRECTION('',(0.,0.,-1.));
#441=DIRECTION('',(0.,-1.,0.));
#442=DIRECTION('',(0.,0.,-1.));
#443=DIRECTION('',(0.,1.,0.));
#444=DIRECTION('',(0.,0.,1.));
#445=DIRECTION('',(1.,0.,0.));
#446=DIRECTION('',(0.,0.,1.));
#447=DIRECTION('',(1.,0.,0.));
#448=DIRECTION('',(1.,0.,0.));
#449=DIRECTION('',(0.,0.,-1.));
#450=DIRECTION('',(0.,0.,-1.));
#451=DIRECTION('',(0.,-1.,0.));
#452=DIRECTION('',(0.,0.,-1.));
#453=DIRECTION('',(0.,-1.,0.));
#454=DIRECTION('',(1.20291043954596E-16,-1.,0.));
#455=DIRECTION('',(1.,1.20291043954596E-16,0.));
#456=DIRECTION('',(0.,0.,1.));
#457=DIRECTION('',(-1.,1.73472347597681E-16,0.));
#458=DIRECTION('',(-1.,-1.20291043954596E-16,0.));
#459=DIRECTION('',(0.,0.,-1.));
#460=DIRECTION('',(-1.,0.,0.));
#461=DIRECTION('',(0.,0.,1.));
#462=DIRECTION('',(0.,1.,0.));
#463=DIRECTION('',(0.,0.,-1.));
#464=DIRECTION('',(-1.26622151531154E-16,1.,0.));
#465=DIRECTION('',(-1.,-1.26622151531154E-16,0.));
#466=DIRECTION('',(1.,1.26622151531154E-16,0.));
#467=DIRECTION('',(1.,0.,0.));
#468=DIRECTION('',(0.,0.,1.));
#469=DIRECTION('',(0.,0.,-1.));
#470=DIRECTION('',(-1.,0.,0.));
#471=DIRECTION('',(1.,0.,0.));
#472=DIRECTION('',(0.,0.,-1.));
#473=DIRECTION('',(0.,1.,0.));
#474=DIRECTION('',(0.,0.,-1.));
#475=DIRECTION('',(-1.,0.,0.));
#476=CARTESIAN_POINT('',(0.,0.,0.));
#477=CARTESIAN_POINT('',(0.,0.,128.));
#478=CARTESIAN_POINT('',(-107.5,19.75,128.));
#479=CARTESIAN_POINT('',(137.5,19.75,128.));
#480=CARTESIAN_POINT('',(146.5,19.75,128.));
#481=CARTESIAN_POINT('',(146.5,-5.25000000000001,128.));
#482=CARTESIAN_POINT('',(146.5,-5.25000000000001,128.));
#483=CARTESIAN_POINT('',(166.5,-5.25000000000001,128.));
#484=CARTESIAN_POINT('',(137.5,-5.25000000000002,128.));
#485=CARTESIAN_POINT('',(137.5,-19.75,128.));
#486=CARTESIAN_POINT('',(0.,0.,128.));
#487=CARTESIAN_POINT('',(137.5,-19.75,128.));
#488=CARTESIAN_POINT('',(137.5,-19.75,128.));
#489=CARTESIAN_POINT('',(166.5,-5.25000000000001,128.));
#490=CARTESIAN_POINT('',(-107.5,-5.25000000000004,128.));
#491=CARTESIAN_POINT('',(-107.5,-5.25000000000004,128.));
#492=CARTESIAN_POINT('',(-107.5,19.75,128.));
#493=CARTESIAN_POINT('',(-107.5,19.75,128.));
#494=CARTESIAN_POINT('',(137.5,-19.75,128.));
#495=CARTESIAN_POINT('',(137.5,34.25,128.));
#496=CARTESIAN_POINT('',(137.5,34.25,128.));
#497=CARTESIAN_POINT('',(-137.5,34.25,128.));
#498=CARTESIAN_POINT('',(-137.5,34.25,128.));
#499=CARTESIAN_POINT('',(-137.5,-19.75,128.));
#500=CARTESIAN_POINT('',(-137.5,-19.75,128.));
#501=CARTESIAN_POINT('',(125.,14.5,-75.));
#502=CARTESIAN_POINT('',(125.,0.,-75.));
#503=CARTESIAN_POINT('',(125.,0.,-75.));
#504=CARTESIAN_POINT('',(125.,0.,75.));
#505=CARTESIAN_POINT('',(125.,14.5,-75.));
#506=CARTESIAN_POINT('',(125.,14.5,-75.));
#507=CARTESIAN_POINT('',(125.,14.5,-75.));
#508=CARTESIAN_POINT('',(125.,14.5,75.));
#509=CARTESIAN_POINT('',(125.,14.5,75.));
#510=CARTESIAN_POINT('',(-125.,14.5,74.9999999999999));
#511=CARTESIAN_POINT('',(-125.,0.,74.9999999999999));
#512=CARTESIAN_POINT('',(-125.,0.,74.9999999999999));
#513=CARTESIAN_POINT('',(-125.,0.,-75.));
#514=CARTESIAN_POINT('',(-125.,14.5,74.9999999999999));
#515=CARTESIAN_POINT('',(-125.,14.5,74.9999999999999));
#516=CARTESIAN_POINT('',(-125.,14.5,74.9999999999999));
#517=CARTESIAN_POINT('',(-125.,14.5,-75.));
#518=CARTESIAN_POINT('',(-125.,14.5,-75.));
#519=CARTESIAN_POINT('',(-125.,14.5,-75.));
#520=CARTESIAN_POINT('',(-125.,0.,-75.));
#521=CARTESIAN_POINT('',(-125.,14.5,-75.));
#522=CARTESIAN_POINT('',(0.,14.5,0.));
#523=CARTESIAN_POINT('',(125.,14.5,75.));
#524=CARTESIAN_POINT('',(0.,0.,0.));
#525=CARTESIAN_POINT('',(125.,0.,75.));
#526=CARTESIAN_POINT('',(137.5,-19.75,128.));
#527=CARTESIAN_POINT('',(137.5,-19.75,75.));
#528=CARTESIAN_POINT('',(137.5,-19.75,75.));
#529=CARTESIAN_POINT('',(137.5,34.25,75.));
#530=CARTESIAN_POINT('',(137.5,34.25,128.));
#531=CARTESIAN_POINT('',(137.5,-19.75,128.));
#532=CARTESIAN_POINT('',(137.5,34.25,128.));
#533=CARTESIAN_POINT('',(137.5,34.25,75.));
#534=CARTESIAN_POINT('',(-137.5,34.25,75.));
#535=CARTESIAN_POINT('',(-137.5,34.25,128.));
#536=CARTESIAN_POINT('',(-137.5,34.25,128.));
#537=CARTESIAN_POINT('',(-137.5,34.25,75.));
#538=CARTESIAN_POINT('',(-137.5,-19.75,75.));
#539=CARTESIAN_POINT('',(-137.5,-19.75,128.));
#540=CARTESIAN_POINT('',(-137.5,-19.75,128.));
#541=CARTESIAN_POINT('',(-137.5,-19.75,75.));
#542=CARTESIAN_POINT('',(0.,0.,75.));
#543=CARTESIAN_POINT('',(166.5,19.7500000000001,148.));
#544=CARTESIAN_POINT('',(166.5,-5.25000000000001,148.));
#545=CARTESIAN_POINT('',(166.5,-5.25000000000001,148.));
#546=CARTESIAN_POINT('',(166.5,-5.25000000000001,-3.5860197484911));
#547=CARTESIAN_POINT('',(166.5,19.75,-3.5860197484911));
#548=CARTESIAN_POINT('',(166.5,19.75,-3.5860197484911));
#549=CARTESIAN_POINT('',(166.5,19.7500000000001,148.));
#550=CARTESIAN_POINT('',(166.5,19.7500000000001,148.));
#551=CARTESIAN_POINT('',(166.5,19.7500000000001,148.));
#552=CARTESIAN_POINT('',(166.5,-5.25000000000001,148.));
#553=CARTESIAN_POINT('',(146.5,-5.25000000000001,-3.5860197484911));
#554=CARTESIAN_POINT('',(146.5,-5.25000000000001,-3.5860197484911));
#555=CARTESIAN_POINT('',(166.5,-5.25000000000001,-3.5860197484911));
#556=CARTESIAN_POINT('',(166.5,-5.25000000000001,148.));
#557=CARTESIAN_POINT('',(-107.5,-5.25000000000004,148.));
#558=CARTESIAN_POINT('',(-107.5,-5.25000000000004,148.));
#559=CARTESIAN_POINT('',(-107.5,-5.25000000000004,148.));
#560=CARTESIAN_POINT('',(-107.5,-5.25000000000004,148.));
#561=CARTESIAN_POINT('',(-107.5,19.75,148.));
#562=CARTESIAN_POINT('',(-107.5,19.75,148.));
#563=CARTESIAN_POINT('',(-107.5,19.75,148.));
#564=CARTESIAN_POINT('',(-107.5,19.75,148.));
#565=CARTESIAN_POINT('',(146.5,19.75,-3.5860197484911));
#566=CARTESIAN_POINT('',(146.5,19.75,-3.5860197484911));
#567=CARTESIAN_POINT('',(146.5,19.75,-3.5860197484911));
#568=CARTESIAN_POINT('',(0.,0.,148.));
#569=CARTESIAN_POINT('',(146.5,-5.25000000000001,-3.5860197484911));
#570=CARTESIAN_POINT('',(146.5,-5.25000000000001,-3.5860197484911));
#571=CARTESIAN_POINT('',(0.,0.,-3.5860197484911));
#572=MECHANICAL_DESIGN_GEOMETRIC_PRESENTATION_REPRESENTATION('',(#359),
#573);
#573=(
GEOMETRIC_REPRESENTATION_CONTEXT(3)
GLOBAL_UNCERTAINTY_ASSIGNED_CONTEXT((#574))
GLOBAL_UNIT_ASSIGNED_CONTEXT((#577,#576,#575))
REPRESENTATION_CONTEXT('Part11','TOP_LEVEL_ASSEMBLY_PART')
);
#574=UNCERTAINTY_MEASURE_WITH_UNIT(LENGTH_MEASURE(0.005),#577,
'DISTANCE_ACCURACY_VALUE','Maximum Tolerance applied to model');
#575=(
NAMED_UNIT(*)
SI_UNIT($,.STERADIAN.)
SOLID_ANGLE_UNIT()
);
#576=(
NAMED_UNIT(*)
PLANE_ANGLE_UNIT()
SI_UNIT($,.RADIAN.)
);
#577=(
LENGTH_UNIT()
NAMED_UNIT(*)
SI_UNIT(.MILLI.,.METRE.)
);
#578=PRODUCT_DEFINITION_SHAPE('','',#579);
#579=PRODUCT_DEFINITION('','',#581,#580);
#580=PRODUCT_DEFINITION_CONTEXT('',#587,'design');
#581=PRODUCT_DEFINITION_FORMATION_WITH_SPECIFIED_SOURCE('','',#583,
 .NOT_KNOWN.);
#582=PRODUCT_RELATED_PRODUCT_CATEGORY('','',(#583));
#583=PRODUCT('Part11','Part11','Part11',(#585));
#584=PRODUCT_CATEGORY('','');
#585=PRODUCT_CONTEXT('',#587,'mechanical');
#586=APPLICATION_PROTOCOL_DEFINITION('international standard',
'automotive_design',2010,#587);
#587=APPLICATION_CONTEXT(
'core data for automotive mechanical design processes');
ENDSEC;
END-ISO-10303-21;
