ISO-10303-21;
HEADER;
/* Generated by software containing ST-Developer
 * from STEP Tools, Inc. (www.steptools.com) 
 */
/* OPTION: strings as raw bytes, not using required /X/ escapes */

FILE_DESCRIPTION(
/* description */ ('Unknown'),
/* implementation_level */ '2;1');

FILE_NAME(
/* name */ 'SNP 1016.2 P LED 230V',
/* time_stamp */ '2018-04-10T11:47:53+02:00',
/* author */ ('Unknown'),
/* organization */ ('Unknown'),
/* preprocessor_version */ 'ST-DEVELOPER v16.7',
/* originating_system */ 'DEX',
/* authorisation */ $);

FILE_SCHEMA (('AUTOMOTIVE_DESIGN {1 0 10303 214 3 1 1}'));
ENDSEC;

DATA;
#10=PROPERTY_DEFINITION_REPRESENTATION(#14,#12);
#11=PROPERTY_DEFINITION_REPRESENTATION(#15,#13);
#12=REPRESENTATION('',(#16),#407);
#13=REPRESENTATION('',(#17),#407);
#14=PROPERTY_DEFINITION('pmi validation property','',#412);
#15=PROPERTY_DEFINITION('pmi validation property','',#412);
#16=VALUE_REPRESENTATION_ITEM('number of annotations',COUNT_MEASURE(0.));
#17=VALUE_REPRESENTATION_ITEM('number of views',COUNT_MEASURE(0.));
#18=SHAPE_REPRESENTATION_RELATIONSHIP('','',#257,#19);
#19=ADVANCED_BREP_SHAPE_REPRESENTATION('',(#255),#407);
#20=CONICAL_SURFACE('',#275,27.5,0.0312398334302683);
#21=CYLINDRICAL_SURFACE('',#271,6.5);
#22=CIRCLE('',#265,6.5);
#23=CIRCLE('',#272,6.5);
#24=CIRCLE('',#274,27.5);
#25=CIRCLE('',#276,30.);
#26=ORIENTED_EDGE('',*,*,#82,.T.);
#27=ORIENTED_EDGE('',*,*,#83,.F.);
#28=ORIENTED_EDGE('',*,*,#84,.F.);
#29=ORIENTED_EDGE('',*,*,#85,.F.);
#30=ORIENTED_EDGE('',*,*,#86,.F.);
#31=ORIENTED_EDGE('',*,*,#87,.F.);
#32=ORIENTED_EDGE('',*,*,#88,.T.);
#33=ORIENTED_EDGE('',*,*,#89,.T.);
#34=ORIENTED_EDGE('',*,*,#83,.T.);
#35=ORIENTED_EDGE('',*,*,#90,.T.);
#36=ORIENTED_EDGE('',*,*,#91,.T.);
#37=ORIENTED_EDGE('',*,*,#92,.F.);
#38=ORIENTED_EDGE('',*,*,#93,.T.);
#39=ORIENTED_EDGE('',*,*,#94,.T.);
#40=ORIENTED_EDGE('',*,*,#85,.T.);
#41=ORIENTED_EDGE('',*,*,#95,.F.);
#42=ORIENTED_EDGE('',*,*,#96,.F.);
#43=ORIENTED_EDGE('',*,*,#97,.T.);
#44=ORIENTED_EDGE('',*,*,#98,.T.);
#45=ORIENTED_EDGE('',*,*,#99,.F.);
#46=ORIENTED_EDGE('',*,*,#100,.T.);
#47=ORIENTED_EDGE('',*,*,#101,.T.);
#48=ORIENTED_EDGE('',*,*,#88,.F.);
#49=ORIENTED_EDGE('',*,*,#102,.F.);
#50=ORIENTED_EDGE('',*,*,#99,.T.);
#51=ORIENTED_EDGE('',*,*,#103,.F.);
#52=ORIENTED_EDGE('',*,*,#96,.T.);
#53=ORIENTED_EDGE('',*,*,#102,.T.);
#54=ORIENTED_EDGE('',*,*,#87,.T.);
#55=ORIENTED_EDGE('',*,*,#98,.F.);
#56=ORIENTED_EDGE('',*,*,#104,.F.);
#57=ORIENTED_EDGE('',*,*,#89,.F.);
#58=ORIENTED_EDGE('',*,*,#101,.F.);
#59=ORIENTED_EDGE('',*,*,#103,.T.);
#60=ORIENTED_EDGE('',*,*,#86,.T.);
#61=ORIENTED_EDGE('',*,*,#104,.T.);
#62=ORIENTED_EDGE('',*,*,#97,.F.);
#63=ORIENTED_EDGE('',*,*,#105,.F.);
#64=ORIENTED_EDGE('',*,*,#93,.F.);
#65=ORIENTED_EDGE('',*,*,#106,.T.);
#66=ORIENTED_EDGE('',*,*,#91,.F.);
#67=ORIENTED_EDGE('',*,*,#95,.T.);
#68=ORIENTED_EDGE('',*,*,#84,.T.);
#69=ORIENTED_EDGE('',*,*,#92,.T.);
#70=ORIENTED_EDGE('',*,*,#106,.F.);
#71=ORIENTED_EDGE('',*,*,#105,.T.);
#72=ORIENTED_EDGE('',*,*,#90,.F.);
#73=ORIENTED_EDGE('',*,*,#82,.F.);
#74=ORIENTED_EDGE('',*,*,#94,.F.);
#75=ORIENTED_EDGE('',*,*,#107,.F.);
#76=ORIENTED_EDGE('',*,*,#100,.F.);
#77=ORIENTED_EDGE('',*,*,#108,.T.);
#78=ORIENTED_EDGE('',*,*,#107,.T.);
#79=ORIENTED_EDGE('',*,*,#109,.T.);
#80=ORIENTED_EDGE('',*,*,#108,.F.);
#81=ORIENTED_EDGE('',*,*,#109,.F.);
#82=EDGE_CURVE('',#110,#111,#130,.T.);
#83=EDGE_CURVE('',#112,#111,#131,.T.);
#84=EDGE_CURVE('',#113,#112,#132,.T.);
#85=EDGE_CURVE('',#110,#113,#133,.T.);
#86=EDGE_CURVE('',#114,#115,#134,.T.);
#87=EDGE_CURVE('',#116,#114,#135,.T.);
#88=EDGE_CURVE('',#116,#117,#136,.T.);
#89=EDGE_CURVE('',#117,#115,#137,.T.);
#90=EDGE_CURVE('',#111,#118,#138,.T.);
#91=EDGE_CURVE('',#118,#119,#139,.T.);
#92=EDGE_CURVE('',#112,#119,#140,.T.);
#93=EDGE_CURVE('',#120,#121,#141,.T.);
#94=EDGE_CURVE('',#121,#110,#142,.T.);
#95=EDGE_CURVE('',#120,#113,#143,.T.);
#96=EDGE_CURVE('',#122,#123,#144,.T.);
#97=EDGE_CURVE('',#122,#124,#145,.T.);
#98=EDGE_CURVE('',#124,#125,#146,.T.);
#99=EDGE_CURVE('',#123,#125,#147,.T.);
#100=EDGE_CURVE('',#126,#126,#22,.T.);
#101=EDGE_CURVE('',#125,#117,#148,.T.);
#102=EDGE_CURVE('',#123,#116,#149,.T.);
#103=EDGE_CURVE('',#122,#114,#150,.T.);
#104=EDGE_CURVE('',#115,#124,#151,.T.);
#105=EDGE_CURVE('',#121,#118,#152,.T.);
#106=EDGE_CURVE('',#120,#119,#153,.T.);
#107=EDGE_CURVE('',#127,#127,#23,.F.);
#108=EDGE_CURVE('',#128,#128,#24,.T.);
#109=EDGE_CURVE('',#129,#129,#25,.T.);
#110=VERTEX_POINT('',#345);
#111=VERTEX_POINT('',#346);
#112=VERTEX_POINT('',#348);
#113=VERTEX_POINT('',#350);
#114=VERTEX_POINT('',#354);
#115=VERTEX_POINT('',#355);
#116=VERTEX_POINT('',#357);
#117=VERTEX_POINT('',#359);
#118=VERTEX_POINT('',#363);
#119=VERTEX_POINT('',#365);
#120=VERTEX_POINT('',#369);
#121=VERTEX_POINT('',#370);
#122=VERTEX_POINT('',#375);
#123=VERTEX_POINT('',#376);
#124=VERTEX_POINT('',#378);
#125=VERTEX_POINT('',#380);
#126=VERTEX_POINT('',#384);
#127=VERTEX_POINT('',#398);
#128=VERTEX_POINT('',#401);
#129=VERTEX_POINT('',#404);
#130=LINE('',#344,#154);
#131=LINE('',#347,#155);
#132=LINE('',#349,#156);
#133=LINE('',#351,#157);
#134=LINE('',#353,#158);
#135=LINE('',#356,#159);
#136=LINE('',#358,#160);
#137=LINE('',#360,#161);
#138=LINE('',#362,#162);
#139=LINE('',#364,#163);
#140=LINE('',#366,#164);
#141=LINE('',#368,#165);
#142=LINE('',#371,#166);
#143=LINE('',#372,#167);
#144=LINE('',#374,#168);
#145=LINE('',#377,#169);
#146=LINE('',#379,#170);
#147=LINE('',#381,#171);
#148=LINE('',#385,#172);
#149=LINE('',#386,#173);
#150=LINE('',#388,#174);
#151=LINE('',#390,#175);
#152=LINE('',#392,#176);
#153=LINE('',#393,#177);
#154=VECTOR('',#282,1000.);
#155=VECTOR('',#283,1000.);
#156=VECTOR('',#284,1000.);
#157=VECTOR('',#285,1000.);
#158=VECTOR('',#288,1000.);
#159=VECTOR('',#289,1000.);
#160=VECTOR('',#290,1000.);
#161=VECTOR('',#291,1000.);
#162=VECTOR('',#294,1000.);
#163=VECTOR('',#295,1000.);
#164=VECTOR('',#296,1000.);
#165=VECTOR('',#299,1000.);
#166=VECTOR('',#300,1000.);
#167=VECTOR('',#301,1000.);
#168=VECTOR('',#304,1000.);
#169=VECTOR('',#305,1000.);
#170=VECTOR('',#306,1000.);
#171=VECTOR('',#307,1000.);
#172=VECTOR('',#312,1000.);
#173=VECTOR('',#313,1000.);
#174=VECTOR('',#316,1000.);
#175=VECTOR('',#319,1000.);
#176=VECTOR('',#322,1000.);
#177=VECTOR('',#323,1000.);
#178=EDGE_LOOP('',(#26,#27,#28,#29));
#179=EDGE_LOOP('',(#30,#31,#32,#33));
#180=EDGE_LOOP('',(#34,#35,#36,#37));
#181=EDGE_LOOP('',(#38,#39,#40,#41));
#182=EDGE_LOOP('',(#42,#43,#44,#45));
#183=EDGE_LOOP('',(#46));
#184=EDGE_LOOP('',(#47,#48,#49,#50));
#185=EDGE_LOOP('',(#51,#52,#53,#54));
#186=EDGE_LOOP('',(#55,#56,#57,#58));
#187=EDGE_LOOP('',(#59,#60,#61,#62));
#188=EDGE_LOOP('',(#63,#64,#65,#66));
#189=EDGE_LOOP('',(#67,#68,#69,#70));
#190=EDGE_LOOP('',(#71,#72,#73,#74));
#191=EDGE_LOOP('',(#75));
#192=EDGE_LOOP('',(#76));
#193=EDGE_LOOP('',(#77));
#194=EDGE_LOOP('',(#78));
#195=EDGE_LOOP('',(#79));
#196=EDGE_LOOP('',(#80));
#197=EDGE_LOOP('',(#81));
#198=FACE_BOUND('',#178,.T.);
#199=FACE_BOUND('',#179,.T.);
#200=FACE_BOUND('',#180,.T.);
#201=FACE_BOUND('',#181,.T.);
#202=FACE_BOUND('',#182,.T.);
#203=FACE_BOUND('',#183,.T.);
#204=FACE_BOUND('',#184,.T.);
#205=FACE_BOUND('',#185,.T.);
#206=FACE_BOUND('',#186,.T.);
#207=FACE_BOUND('',#187,.T.);
#208=FACE_BOUND('',#188,.T.);
#209=FACE_BOUND('',#189,.T.);
#210=FACE_BOUND('',#190,.T.);
#211=FACE_BOUND('',#191,.T.);
#212=FACE_BOUND('',#192,.T.);
#213=FACE_BOUND('',#193,.T.);
#214=FACE_BOUND('',#194,.T.);
#215=FACE_BOUND('',#195,.T.);
#216=FACE_BOUND('',#196,.T.);
#217=FACE_BOUND('',#197,.T.);
#218=PLANE('',#259);
#219=PLANE('',#260);
#220=PLANE('',#261);
#221=PLANE('',#262);
#222=PLANE('',#263);
#223=PLANE('',#264);
#224=PLANE('',#266);
#225=PLANE('',#267);
#226=PLANE('',#268);
#227=PLANE('',#269);
#228=PLANE('',#270);
#229=PLANE('',#273);
#230=PLANE('',#277);
#231=ADVANCED_FACE('',(#198),#218,.F.);
#232=ADVANCED_FACE('',(#199),#219,.F.);
#233=ADVANCED_FACE('',(#200),#220,.T.);
#234=ADVANCED_FACE('',(#201),#221,.T.);
#235=ADVANCED_FACE('',(#202),#222,.F.);
#236=ADVANCED_FACE('',(#203,#204),#223,.F.);
#237=ADVANCED_FACE('',(#205),#224,.T.);
#238=ADVANCED_FACE('',(#206),#225,.F.);
#239=ADVANCED_FACE('',(#207,#208),#226,.F.);
#240=ADVANCED_FACE('',(#209),#227,.F.);
#241=ADVANCED_FACE('',(#210),#228,.T.);
#242=ADVANCED_FACE('',(#211,#212),#21,.T.);
#243=ADVANCED_FACE('',(#213,#214),#229,.T.);
#244=ADVANCED_FACE('',(#215,#216),#20,.T.);
#245=ADVANCED_FACE('',(#217),#230,.F.);
#246=CLOSED_SHELL('',(#231,#232,#233,#234,#235,#236,#237,#238,#239,#240,
#241,#242,#243,#244,#245));
#247=STYLED_ITEM('',(#248),#255);
#248=PRESENTATION_STYLE_ASSIGNMENT((#249));
#249=SURFACE_STYLE_USAGE(.BOTH.,#250);
#250=SURFACE_SIDE_STYLE('',(#251));
#251=SURFACE_STYLE_FILL_AREA(#252);
#252=FILL_AREA_STYLE('',(#253));
#253=FILL_AREA_STYLE_COLOUR('',#254);
#254=COLOUR_RGB('',0.506983280181885,0.531564235687256,0.550000011920929);
#255=MANIFOLD_SOLID_BREP('',#246);
#256=SHAPE_DEFINITION_REPRESENTATION(#412,#257);
#257=SHAPE_REPRESENTATION('SNP 1016.2 P LED 230V',(#258),#407);
#258=AXIS2_PLACEMENT_3D('',#342,#278,#279);
#259=AXIS2_PLACEMENT_3D('',#343,#280,#281);
#260=AXIS2_PLACEMENT_3D('',#352,#286,#287);
#261=AXIS2_PLACEMENT_3D('',#361,#292,#293);
#262=AXIS2_PLACEMENT_3D('',#367,#297,#298);
#263=AXIS2_PLACEMENT_3D('',#373,#302,#303);
#264=AXIS2_PLACEMENT_3D('',#382,#308,#309);
#265=AXIS2_PLACEMENT_3D('',#383,#310,#311);
#266=AXIS2_PLACEMENT_3D('',#387,#314,#315);
#267=AXIS2_PLACEMENT_3D('',#389,#317,#318);
#268=AXIS2_PLACEMENT_3D('',#391,#320,#321);
#269=AXIS2_PLACEMENT_3D('',#394,#324,#325);
#270=AXIS2_PLACEMENT_3D('',#395,#326,#327);
#271=AXIS2_PLACEMENT_3D('',#396,#328,#329);
#272=AXIS2_PLACEMENT_3D('',#397,#330,#331);
#273=AXIS2_PLACEMENT_3D('',#399,#332,#333);
#274=AXIS2_PLACEMENT_3D('',#400,#334,#335);
#275=AXIS2_PLACEMENT_3D('',#402,#336,#337);
#276=AXIS2_PLACEMENT_3D('',#403,#338,#339);
#277=AXIS2_PLACEMENT_3D('',#405,#340,#341);
#278=DIRECTION('',(0.,0.,1.));
#279=DIRECTION('',(1.,0.,0.));
#280=DIRECTION('',(0.,0.,1.));
#281=DIRECTION('',(1.,0.,0.));
#282=DIRECTION('',(0.,-1.,0.));
#283=DIRECTION('',(1.,0.,0.));
#284=DIRECTION('',(0.,-1.,0.));
#285=DIRECTION('',(-1.,0.,0.));
#286=DIRECTION('',(-1.,0.,0.));
#287=DIRECTION('',(0.,0.,1.));
#288=DIRECTION('',(0.,-1.,0.));
#289=DIRECTION('',(0.,0.,-1.));
#290=DIRECTION('',(0.,-1.,0.));
#291=DIRECTION('',(0.,0.,-1.));
#292=DIRECTION('',(0.,-1.,0.));
#293=DIRECTION('',(0.,0.,-1.));
#294=DIRECTION('',(1.94094934375027E-16,0.,1.));
#295=DIRECTION('',(-1.,0.,0.));
#296=DIRECTION('',(0.,0.,1.));
#297=DIRECTION('',(0.,1.,0.));
#298=DIRECTION('',(0.,0.,1.));
#299=DIRECTION('',(1.,0.,0.));
#300=DIRECTION('',(-1.94094934375027E-16,0.,-1.));
#301=DIRECTION('',(0.,0.,-1.));
#302=DIRECTION('',(1.,0.,0.));
#303=DIRECTION('',(0.,0.,-1.));
#304=DIRECTION('',(0.,0.,1.));
#305=DIRECTION('',(0.,-1.,0.));
#306=DIRECTION('',(0.,0.,1.));
#307=DIRECTION('',(0.,-1.,0.));
#308=DIRECTION('',(0.,0.,-1.));
#309=DIRECTION('',(-1.,0.,0.));
#310=DIRECTION('',(0.,0.,-1.));
#311=DIRECTION('',(1.,0.,0.));
#312=DIRECTION('',(1.,0.,0.));
#313=DIRECTION('',(1.,0.,0.));
#314=DIRECTION('',(0.,1.,0.));
#315=DIRECTION('',(0.,0.,1.));
#316=DIRECTION('',(1.,0.,0.));
#317=DIRECTION('',(0.,1.,0.));
#318=DIRECTION('',(0.,0.,1.));
#319=DIRECTION('',(-1.,0.,0.));
#320=DIRECTION('',(0.,0.,1.));
#321=DIRECTION('',(1.,0.,0.));
#322=DIRECTION('',(0.,-1.,0.));
#323=DIRECTION('',(0.,-1.,0.));
#324=DIRECTION('',(1.,0.,0.));
#325=DIRECTION('',(0.,0.,-1.));
#326=DIRECTION('',(1.,0.,-1.94094934375027E-16));
#327=DIRECTION('',(-1.94094934375027E-16,0.,-1.));
#328=DIRECTION('',(0.,0.,-1.));
#329=DIRECTION('',(-1.,0.,0.));
#330=DIRECTION('',(0.,0.,-1.));
#331=DIRECTION('',(-1.,0.,0.));
#332=DIRECTION('',(0.,0.,-1.));
#333=DIRECTION('',(-1.,0.,0.));
#334=DIRECTION('',(0.,0.,-1.));
#335=DIRECTION('',(-1.,0.,0.));
#336=DIRECTION('',(0.,0.,1.));
#337=DIRECTION('',(1.,0.,0.));
#338=DIRECTION('',(0.,0.,-1.));
#339=DIRECTION('',(-1.,0.,0.));
#340=DIRECTION('',(0.,0.,-1.));
#341=DIRECTION('',(-1.,0.,0.));
#342=CARTESIAN_POINT('',(0.,0.,0.));
#343=CARTESIAN_POINT('',(137.5,54.,-101.5));
#344=CARTESIAN_POINT('',(125.,63.4954853054073,-101.5));
#345=CARTESIAN_POINT('',(125.,37.,-101.5));
#346=CARTESIAN_POINT('',(125.,17.,-101.5));
#347=CARTESIAN_POINT('',(-137.5,17.,-101.5));
#348=CARTESIAN_POINT('',(-125.,17.,-101.5));
#349=CARTESIAN_POINT('',(-125.,63.4954853054073,-101.5));
#350=CARTESIAN_POINT('',(-125.,37.,-101.5));
#351=CARTESIAN_POINT('',(137.5,37.,-101.5));
#352=CARTESIAN_POINT('',(137.5,54.,101.5));
#353=CARTESIAN_POINT('',(137.5,17.,41.5));
#354=CARTESIAN_POINT('',(137.5,54.,41.5));
#355=CARTESIAN_POINT('',(137.5,0.,41.5));
#356=CARTESIAN_POINT('',(137.5,54.,101.5));
#357=CARTESIAN_POINT('',(137.5,54.,101.5));
#358=CARTESIAN_POINT('',(137.5,54.,101.5));
#359=CARTESIAN_POINT('',(137.5,0.,101.5));
#360=CARTESIAN_POINT('',(137.5,0.,101.5));
#361=CARTESIAN_POINT('',(0.,17.,0.));
#362=CARTESIAN_POINT('',(125.,17.,-101.5));
#363=CARTESIAN_POINT('',(125.,17.,41.5));
#364=CARTESIAN_POINT('',(137.5,17.,41.5));
#365=CARTESIAN_POINT('',(-125.,17.,41.5));
#366=CARTESIAN_POINT('',(-125.,17.,-101.5));
#367=CARTESIAN_POINT('',(0.,37.,0.));
#368=CARTESIAN_POINT('',(-137.5,37.,41.5));
#369=CARTESIAN_POINT('',(-125.,37.,41.5));
#370=CARTESIAN_POINT('',(125.,37.,41.5));
#371=CARTESIAN_POINT('',(125.,37.,-2.42618667968784E-14));
#372=CARTESIAN_POINT('',(-125.,37.,0.));
#373=CARTESIAN_POINT('',(-137.5,54.,-101.5));
#374=CARTESIAN_POINT('',(-137.5,54.,-101.5));
#375=CARTESIAN_POINT('',(-137.5,54.,41.5));
#376=CARTESIAN_POINT('',(-137.5,54.,101.5));
#377=CARTESIAN_POINT('',(-137.5,17.,41.5));
#378=CARTESIAN_POINT('',(-137.5,0.,41.5));
#379=CARTESIAN_POINT('',(-137.5,0.,-101.5));
#380=CARTESIAN_POINT('',(-137.5,0.,101.5));
#381=CARTESIAN_POINT('',(-137.5,54.,101.5));
#382=CARTESIAN_POINT('',(-137.5,54.,101.5));
#383=CARTESIAN_POINT('',(0.,27.,101.5));
#384=CARTESIAN_POINT('',(6.5,27.,101.5));
#385=CARTESIAN_POINT('',(-137.5,0.,101.5));
#386=CARTESIAN_POINT('',(-137.5,54.,101.5));
#387=CARTESIAN_POINT('',(0.,54.,0.));
#388=CARTESIAN_POINT('',(-137.5,54.,41.5));
#389=CARTESIAN_POINT('',(0.,0.,0.));
#390=CARTESIAN_POINT('',(137.5,0.,41.5));
#391=CARTESIAN_POINT('',(137.5,17.,41.5));
#392=CARTESIAN_POINT('',(125.,63.4954853054073,41.5));
#393=CARTESIAN_POINT('',(-125.,63.4954853054073,41.5));
#394=CARTESIAN_POINT('',(-125.,63.4954853054073,-101.5));
#395=CARTESIAN_POINT('',(125.,63.4954853054073,-101.5));
#396=CARTESIAN_POINT('',(0.,27.,601.5));
#397=CARTESIAN_POINT('',(0.,27.,521.5));
#398=CARTESIAN_POINT('',(-6.5,27.,521.5));
#399=CARTESIAN_POINT('',(-6.26129424745785,28.7453350242149,521.5));
#400=CARTESIAN_POINT('',(0.,27.,521.5));
#401=CARTESIAN_POINT('',(-27.5,27.,521.5));
#402=CARTESIAN_POINT('',(0.,27.,521.5));
#403=CARTESIAN_POINT('',(0.,27.,601.5));
#404=CARTESIAN_POINT('',(-30.,27.,601.5));
#405=CARTESIAN_POINT('',(0.,27.,601.5));
#406=MECHANICAL_DESIGN_GEOMETRIC_PRESENTATION_REPRESENTATION('',(#247),
#407);
#407=(
GEOMETRIC_REPRESENTATION_CONTEXT(3)
GLOBAL_UNCERTAINTY_ASSIGNED_CONTEXT((#408))
GLOBAL_UNIT_ASSIGNED_CONTEXT((#411,#410,#409))
REPRESENTATION_CONTEXT('SNP 1016.2 P LED 230V',
'TOP_LEVEL_ASSEMBLY_PART')
);
#408=UNCERTAINTY_MEASURE_WITH_UNIT(LENGTH_MEASURE(0.005),#411,
'DISTANCE_ACCURACY_VALUE','Maximum Tolerance applied to model');
#409=(
NAMED_UNIT(*)
SI_UNIT($,.STERADIAN.)
SOLID_ANGLE_UNIT()
);
#410=(
NAMED_UNIT(*)
PLANE_ANGLE_UNIT()
SI_UNIT($,.RADIAN.)
);
#411=(
LENGTH_UNIT()
NAMED_UNIT(*)
SI_UNIT(.MILLI.,.METRE.)
);
#412=PRODUCT_DEFINITION_SHAPE('','',#413);
#413=PRODUCT_DEFINITION('','',#415,#414);
#414=PRODUCT_DEFINITION_CONTEXT('',#421,'design');
#415=PRODUCT_DEFINITION_FORMATION_WITH_SPECIFIED_SOURCE('','',#417,
 .NOT_KNOWN.);
#416=PRODUCT_RELATED_PRODUCT_CATEGORY('','',(#417));
#417=PRODUCT('SNP 1016.2 P LED 230V','SNP 1016.2 P LED 230V',
'SNP 1016.2 P LED 230V',(#419));
#418=PRODUCT_CATEGORY('','');
#419=PRODUCT_CONTEXT('',#421,'mechanical');
#420=APPLICATION_PROTOCOL_DEFINITION('international standard',
'automotive_design',2010,#421);
#421=APPLICATION_CONTEXT(
'core data for automotive mechanical design processes');
ENDSEC;
END-ISO-10303-21;
