ISO-10303-21;
HEADER;
/* Generated by software containing ST-Developer
 * from STEP Tools, Inc. (www.steptools.com) 
 */
/* OPTION: strings as raw bytes, not using required /X/ escapes */

FILE_DESCRIPTION(
/* description */ ('Unknown'),
/* implementation_level */ '2;1');

FILE_NAME(
/* name */ 'SNP 1018.2 P LED 230V',
/* time_stamp */ '2018-04-10T12:18:58+02:00',
/* author */ ('Unknown'),
/* organization */ ('Unknown'),
/* preprocessor_version */ 'ST-DEVELOPER v16.7',
/* originating_system */ 'DEX',
/* authorisation */ $);

FILE_SCHEMA (('AUTOMOTIVE_DESIGN {1 0 10303 214 3 1 1}'));
ENDSEC;

DATA;
#10=PROPERTY_DEFINITION_REPRESENTATION(#14,#12);
#11=PROPERTY_DEFINITION_REPRESENTATION(#15,#13);
#12=REPRESENTATION('',(#16),#487);
#13=REPRESENTATION('',(#17),#487);
#14=PROPERTY_DEFINITION('pmi validation property','',#492);
#15=PROPERTY_DEFINITION('pmi validation property','',#492);
#16=VALUE_REPRESENTATION_ITEM('number of annotations',COUNT_MEASURE(0.));
#17=VALUE_REPRESENTATION_ITEM('number of views',COUNT_MEASURE(0.));
#18=SHAPE_REPRESENTATION_RELATIONSHIP('','',#301,#19);
#19=ADVANCED_BREP_SHAPE_REPRESENTATION('',(#299),#487);
#20=CONICAL_SURFACE('',#320,30.,0.0312398334302684);
#21=CONICAL_SURFACE('',#325,30.,0.0312398334302681);
#22=CYLINDRICAL_SURFACE('',#316,6.50000000000001);
#23=CYLINDRICAL_SURFACE('',#318,6.50000000000001);
#24=CIRCLE('',#308,6.50000000000001);
#25=CIRCLE('',#309,6.50000000000001);
#26=CIRCLE('',#317,6.50000000000001);
#27=CIRCLE('',#319,6.50000000000001);
#28=CIRCLE('',#321,27.5);
#29=CIRCLE('',#322,30.);
#30=CIRCLE('',#326,27.5);
#31=CIRCLE('',#327,30.);
#32=ORIENTED_EDGE('',*,*,#96,.F.);
#33=ORIENTED_EDGE('',*,*,#97,.F.);
#34=ORIENTED_EDGE('',*,*,#98,.F.);
#35=ORIENTED_EDGE('',*,*,#99,.T.);
#36=ORIENTED_EDGE('',*,*,#100,.F.);
#37=ORIENTED_EDGE('',*,*,#101,.T.);
#38=ORIENTED_EDGE('',*,*,#102,.T.);
#39=ORIENTED_EDGE('',*,*,#103,.F.);
#40=ORIENTED_EDGE('',*,*,#104,.F.);
#41=ORIENTED_EDGE('',*,*,#105,.T.);
#42=ORIENTED_EDGE('',*,*,#106,.T.);
#43=ORIENTED_EDGE('',*,*,#98,.T.);
#44=ORIENTED_EDGE('',*,*,#107,.F.);
#45=ORIENTED_EDGE('',*,*,#96,.T.);
#46=ORIENTED_EDGE('',*,*,#108,.T.);
#47=ORIENTED_EDGE('',*,*,#109,.T.);
#48=ORIENTED_EDGE('',*,*,#110,.T.);
#49=ORIENTED_EDGE('',*,*,#111,.T.);
#50=ORIENTED_EDGE('',*,*,#112,.T.);
#51=ORIENTED_EDGE('',*,*,#113,.F.);
#52=ORIENTED_EDGE('',*,*,#114,.F.);
#53=ORIENTED_EDGE('',*,*,#103,.T.);
#54=ORIENTED_EDGE('',*,*,#115,.F.);
#55=ORIENTED_EDGE('',*,*,#116,.F.);
#56=ORIENTED_EDGE('',*,*,#113,.T.);
#57=ORIENTED_EDGE('',*,*,#117,.T.);
#58=ORIENTED_EDGE('',*,*,#118,.F.);
#59=ORIENTED_EDGE('',*,*,#100,.T.);
#60=ORIENTED_EDGE('',*,*,#114,.T.);
#61=ORIENTED_EDGE('',*,*,#116,.T.);
#62=ORIENTED_EDGE('',*,*,#102,.F.);
#63=ORIENTED_EDGE('',*,*,#119,.F.);
#64=ORIENTED_EDGE('',*,*,#117,.F.);
#65=ORIENTED_EDGE('',*,*,#112,.F.);
#66=ORIENTED_EDGE('',*,*,#105,.F.);
#67=ORIENTED_EDGE('',*,*,#120,.T.);
#68=ORIENTED_EDGE('',*,*,#109,.F.);
#69=ORIENTED_EDGE('',*,*,#121,.F.);
#70=ORIENTED_EDGE('',*,*,#118,.T.);
#71=ORIENTED_EDGE('',*,*,#115,.T.);
#72=ORIENTED_EDGE('',*,*,#119,.T.);
#73=ORIENTED_EDGE('',*,*,#101,.F.);
#74=ORIENTED_EDGE('',*,*,#121,.T.);
#75=ORIENTED_EDGE('',*,*,#108,.F.);
#76=ORIENTED_EDGE('',*,*,#99,.F.);
#77=ORIENTED_EDGE('',*,*,#106,.F.);
#78=ORIENTED_EDGE('',*,*,#104,.T.);
#79=ORIENTED_EDGE('',*,*,#97,.T.);
#80=ORIENTED_EDGE('',*,*,#107,.T.);
#81=ORIENTED_EDGE('',*,*,#120,.F.);
#82=ORIENTED_EDGE('',*,*,#122,.F.);
#83=ORIENTED_EDGE('',*,*,#111,.F.);
#84=ORIENTED_EDGE('',*,*,#123,.F.);
#85=ORIENTED_EDGE('',*,*,#110,.F.);
#86=ORIENTED_EDGE('',*,*,#124,.T.);
#87=ORIENTED_EDGE('',*,*,#125,.F.);
#88=ORIENTED_EDGE('',*,*,#122,.T.);
#89=ORIENTED_EDGE('',*,*,#124,.F.);
#90=ORIENTED_EDGE('',*,*,#125,.T.);
#91=ORIENTED_EDGE('',*,*,#126,.T.);
#92=ORIENTED_EDGE('',*,*,#127,.F.);
#93=ORIENTED_EDGE('',*,*,#123,.T.);
#94=ORIENTED_EDGE('',*,*,#126,.F.);
#95=ORIENTED_EDGE('',*,*,#127,.T.);
#96=EDGE_CURVE('',#128,#129,#152,.T.);
#97=EDGE_CURVE('',#130,#128,#153,.T.);
#98=EDGE_CURVE('',#131,#130,#154,.T.);
#99=EDGE_CURVE('',#131,#129,#155,.T.);
#100=EDGE_CURVE('',#132,#133,#156,.T.);
#101=EDGE_CURVE('',#132,#134,#157,.T.);
#102=EDGE_CURVE('',#134,#135,#158,.T.);
#103=EDGE_CURVE('',#133,#135,#159,.T.);
#104=EDGE_CURVE('',#136,#130,#160,.T.);
#105=EDGE_CURVE('',#136,#137,#161,.T.);
#106=EDGE_CURVE('',#137,#131,#162,.T.);
#107=EDGE_CURVE('',#128,#138,#163,.T.);
#108=EDGE_CURVE('',#129,#139,#164,.T.);
#109=EDGE_CURVE('',#139,#138,#165,.T.);
#110=EDGE_CURVE('',#140,#140,#24,.T.);
#111=EDGE_CURVE('',#141,#141,#25,.T.);
#112=EDGE_CURVE('',#135,#142,#166,.T.);
#113=EDGE_CURVE('',#143,#142,#167,.T.);
#114=EDGE_CURVE('',#133,#143,#168,.T.);
#115=EDGE_CURVE('',#144,#145,#169,.T.);
#116=EDGE_CURVE('',#143,#144,#170,.T.);
#117=EDGE_CURVE('',#142,#145,#171,.T.);
#118=EDGE_CURVE('',#132,#144,#172,.T.);
#119=EDGE_CURVE('',#145,#134,#173,.T.);
#120=EDGE_CURVE('',#136,#138,#174,.T.);
#121=EDGE_CURVE('',#137,#139,#175,.T.);
#122=EDGE_CURVE('',#146,#146,#26,.F.);
#123=EDGE_CURVE('',#147,#147,#27,.F.);
#124=EDGE_CURVE('',#148,#148,#28,.T.);
#125=EDGE_CURVE('',#149,#149,#29,.T.);
#126=EDGE_CURVE('',#150,#150,#30,.T.);
#127=EDGE_CURVE('',#151,#151,#31,.T.);
#128=VERTEX_POINT('',#413);
#129=VERTEX_POINT('',#414);
#130=VERTEX_POINT('',#416);
#131=VERTEX_POINT('',#418);
#132=VERTEX_POINT('',#422);
#133=VERTEX_POINT('',#423);
#134=VERTEX_POINT('',#425);
#135=VERTEX_POINT('',#427);
#136=VERTEX_POINT('',#431);
#137=VERTEX_POINT('',#433);
#138=VERTEX_POINT('',#437);
#139=VERTEX_POINT('',#439);
#140=VERTEX_POINT('',#443);
#141=VERTEX_POINT('',#445);
#142=VERTEX_POINT('',#447);
#143=VERTEX_POINT('',#449);
#144=VERTEX_POINT('',#453);
#145=VERTEX_POINT('',#454);
#146=VERTEX_POINT('',#468);
#147=VERTEX_POINT('',#471);
#148=VERTEX_POINT('',#474);
#149=VERTEX_POINT('',#476);
#150=VERTEX_POINT('',#481);
#151=VERTEX_POINT('',#483);
#152=LINE('',#412,#176);
#153=LINE('',#415,#177);
#154=LINE('',#417,#178);
#155=LINE('',#419,#179);
#156=LINE('',#421,#180);
#157=LINE('',#424,#181);
#158=LINE('',#426,#182);
#159=LINE('',#428,#183);
#160=LINE('',#430,#184);
#161=LINE('',#432,#185);
#162=LINE('',#434,#186);
#163=LINE('',#436,#187);
#164=LINE('',#438,#188);
#165=LINE('',#440,#189);
#166=LINE('',#446,#190);
#167=LINE('',#448,#191);
#168=LINE('',#450,#192);
#169=LINE('',#452,#193);
#170=LINE('',#455,#194);
#171=LINE('',#456,#195);
#172=LINE('',#458,#196);
#173=LINE('',#460,#197);
#174=LINE('',#462,#198);
#175=LINE('',#463,#199);
#176=VECTOR('',#334,1000.);
#177=VECTOR('',#335,1000.);
#178=VECTOR('',#336,1000.);
#179=VECTOR('',#337,1000.);
#180=VECTOR('',#340,1000.);
#181=VECTOR('',#341,1000.);
#182=VECTOR('',#342,1000.);
#183=VECTOR('',#343,1000.);
#184=VECTOR('',#346,1000.);
#185=VECTOR('',#347,1000.);
#186=VECTOR('',#348,1000.);
#187=VECTOR('',#351,1000.);
#188=VECTOR('',#352,1000.);
#189=VECTOR('',#353,1000.);
#190=VECTOR('',#360,1000.);
#191=VECTOR('',#361,1000.);
#192=VECTOR('',#362,1000.);
#193=VECTOR('',#365,1000.);
#194=VECTOR('',#366,1000.);
#195=VECTOR('',#367,1000.);
#196=VECTOR('',#370,1000.);
#197=VECTOR('',#373,1000.);
#198=VECTOR('',#376,1000.);
#199=VECTOR('',#377,1000.);
#200=EDGE_LOOP('',(#32,#33,#34,#35));
#201=EDGE_LOOP('',(#36,#37,#38,#39));
#202=EDGE_LOOP('',(#40,#41,#42,#43));
#203=EDGE_LOOP('',(#44,#45,#46,#47));
#204=EDGE_LOOP('',(#48));
#205=EDGE_LOOP('',(#49));
#206=EDGE_LOOP('',(#50,#51,#52,#53));
#207=EDGE_LOOP('',(#54,#55,#56,#57));
#208=EDGE_LOOP('',(#58,#59,#60,#61));
#209=EDGE_LOOP('',(#62,#63,#64,#65));
#210=EDGE_LOOP('',(#66,#67,#68,#69));
#211=EDGE_LOOP('',(#70,#71,#72,#73));
#212=EDGE_LOOP('',(#74,#75,#76,#77));
#213=EDGE_LOOP('',(#78,#79,#80,#81));
#214=EDGE_LOOP('',(#82));
#215=EDGE_LOOP('',(#83));
#216=EDGE_LOOP('',(#84));
#217=EDGE_LOOP('',(#85));
#218=EDGE_LOOP('',(#86));
#219=EDGE_LOOP('',(#87));
#220=EDGE_LOOP('',(#88));
#221=EDGE_LOOP('',(#89));
#222=EDGE_LOOP('',(#90));
#223=EDGE_LOOP('',(#91));
#224=EDGE_LOOP('',(#92));
#225=EDGE_LOOP('',(#93));
#226=EDGE_LOOP('',(#94));
#227=EDGE_LOOP('',(#95));
#228=FACE_BOUND('',#200,.T.);
#229=FACE_BOUND('',#201,.T.);
#230=FACE_BOUND('',#202,.T.);
#231=FACE_BOUND('',#203,.T.);
#232=FACE_BOUND('',#204,.T.);
#233=FACE_BOUND('',#205,.T.);
#234=FACE_BOUND('',#206,.T.);
#235=FACE_BOUND('',#207,.T.);
#236=FACE_BOUND('',#208,.T.);
#237=FACE_BOUND('',#209,.T.);
#238=FACE_BOUND('',#210,.T.);
#239=FACE_BOUND('',#211,.T.);
#240=FACE_BOUND('',#212,.T.);
#241=FACE_BOUND('',#213,.T.);
#242=FACE_BOUND('',#214,.T.);
#243=FACE_BOUND('',#215,.T.);
#244=FACE_BOUND('',#216,.T.);
#245=FACE_BOUND('',#217,.T.);
#246=FACE_BOUND('',#218,.T.);
#247=FACE_BOUND('',#219,.T.);
#248=FACE_BOUND('',#220,.T.);
#249=FACE_BOUND('',#221,.T.);
#250=FACE_BOUND('',#222,.T.);
#251=FACE_BOUND('',#223,.T.);
#252=FACE_BOUND('',#224,.T.);
#253=FACE_BOUND('',#225,.T.);
#254=FACE_BOUND('',#226,.T.);
#255=FACE_BOUND('',#227,.T.);
#256=PLANE('',#303);
#257=PLANE('',#304);
#258=PLANE('',#305);
#259=PLANE('',#306);
#260=PLANE('',#307);
#261=PLANE('',#310);
#262=PLANE('',#311);
#263=PLANE('',#312);
#264=PLANE('',#313);
#265=PLANE('',#314);
#266=PLANE('',#315);
#267=PLANE('',#323);
#268=PLANE('',#324);
#269=PLANE('',#328);
#270=PLANE('',#329);
#271=ADVANCED_FACE('',(#228),#256,.F.);
#272=ADVANCED_FACE('',(#229),#257,.F.);
#273=ADVANCED_FACE('',(#230),#258,.T.);
#274=ADVANCED_FACE('',(#231),#259,.T.);
#275=ADVANCED_FACE('',(#232,#233,#234),#260,.F.);
#276=ADVANCED_FACE('',(#235),#261,.F.);
#277=ADVANCED_FACE('',(#236),#262,.T.);
#278=ADVANCED_FACE('',(#237),#263,.F.);
#279=ADVANCED_FACE('',(#238,#239),#264,.F.);
#280=ADVANCED_FACE('',(#240),#265,.T.);
#281=ADVANCED_FACE('',(#241),#266,.F.);
#282=ADVANCED_FACE('',(#242,#243),#22,.T.);
#283=ADVANCED_FACE('',(#244,#245),#23,.T.);
#284=ADVANCED_FACE('',(#246,#247),#20,.T.);
#285=ADVANCED_FACE('',(#248,#249),#267,.T.);
#286=ADVANCED_FACE('',(#250),#268,.F.);
#287=ADVANCED_FACE('',(#251,#252),#21,.T.);
#288=ADVANCED_FACE('',(#253,#254),#269,.T.);
#289=ADVANCED_FACE('',(#255),#270,.F.);
#290=CLOSED_SHELL('',(#271,#272,#273,#274,#275,#276,#277,#278,#279,#280,
#281,#282,#283,#284,#285,#286,#287,#288,#289));
#291=STYLED_ITEM('',(#292),#299);
#292=PRESENTATION_STYLE_ASSIGNMENT((#293));
#293=SURFACE_STYLE_USAGE(.BOTH.,#294);
#294=SURFACE_SIDE_STYLE('',(#295));
#295=SURFACE_STYLE_FILL_AREA(#296);
#296=FILL_AREA_STYLE('',(#297));
#297=FILL_AREA_STYLE_COLOUR('',#298);
#298=COLOUR_RGB('',0.506983280181885,0.531564235687256,0.550000011920929);
#299=MANIFOLD_SOLID_BREP('',#290);
#300=SHAPE_DEFINITION_REPRESENTATION(#492,#301);
#301=SHAPE_REPRESENTATION('SNP 1018.2 P LED 230V',(#302),#487);
#302=AXIS2_PLACEMENT_3D('',#410,#330,#331);
#303=AXIS2_PLACEMENT_3D('',#411,#332,#333);
#304=AXIS2_PLACEMENT_3D('',#420,#338,#339);
#305=AXIS2_PLACEMENT_3D('',#429,#344,#345);
#306=AXIS2_PLACEMENT_3D('',#435,#349,#350);
#307=AXIS2_PLACEMENT_3D('',#441,#354,#355);
#308=AXIS2_PLACEMENT_3D('',#442,#356,#357);
#309=AXIS2_PLACEMENT_3D('',#444,#358,#359);
#310=AXIS2_PLACEMENT_3D('',#451,#363,#364);
#311=AXIS2_PLACEMENT_3D('',#457,#368,#369);
#312=AXIS2_PLACEMENT_3D('',#459,#371,#372);
#313=AXIS2_PLACEMENT_3D('',#461,#374,#375);
#314=AXIS2_PLACEMENT_3D('',#464,#378,#379);
#315=AXIS2_PLACEMENT_3D('',#465,#380,#381);
#316=AXIS2_PLACEMENT_3D('',#466,#382,#383);
#317=AXIS2_PLACEMENT_3D('',#467,#384,#385);
#318=AXIS2_PLACEMENT_3D('',#469,#386,#387);
#319=AXIS2_PLACEMENT_3D('',#470,#388,#389);
#320=AXIS2_PLACEMENT_3D('',#472,#390,#391);
#321=AXIS2_PLACEMENT_3D('',#473,#392,#393);
#322=AXIS2_PLACEMENT_3D('',#475,#394,#395);
#323=AXIS2_PLACEMENT_3D('',#477,#396,#397);
#324=AXIS2_PLACEMENT_3D('',#478,#398,#399);
#325=AXIS2_PLACEMENT_3D('',#479,#400,#401);
#326=AXIS2_PLACEMENT_3D('',#480,#402,#403);
#327=AXIS2_PLACEMENT_3D('',#482,#404,#405);
#328=AXIS2_PLACEMENT_3D('',#484,#406,#407);
#329=AXIS2_PLACEMENT_3D('',#485,#408,#409);
#330=DIRECTION('',(0.,0.,1.));
#331=DIRECTION('',(1.,0.,0.));
#332=DIRECTION('',(0.,0.,1.));
#333=DIRECTION('',(1.,0.,0.));
#334=DIRECTION('',(-1.,0.,0.));
#335=DIRECTION('',(0.,1.,0.));
#336=DIRECTION('',(1.,0.,0.));
#337=DIRECTION('',(0.,1.,0.));
#338=DIRECTION('',(1.,0.,0.));
#339=DIRECTION('',(0.,0.,-1.));
#340=DIRECTION('',(0.,0.,1.));
#341=DIRECTION('',(0.,-1.,0.));
#342=DIRECTION('',(0.,0.,1.));
#343=DIRECTION('',(0.,-1.,0.));
#344=DIRECTION('',(0.,-1.,0.));
#345=DIRECTION('',(0.,0.,-1.));
#346=DIRECTION('',(0.,0.,-1.));
#347=DIRECTION('',(-1.,0.,0.));
#348=DIRECTION('',(1.4685489743719E-16,0.,-1.));
#349=DIRECTION('',(0.,1.,0.));
#350=DIRECTION('',(0.,0.,1.));
#351=DIRECTION('',(0.,0.,1.));
#352=DIRECTION('',(-1.4685489743719E-16,0.,1.));
#353=DIRECTION('',(1.,0.,0.));
#354=DIRECTION('',(0.,0.,-1.));
#355=DIRECTION('',(-1.,0.,0.));
#356=DIRECTION('',(0.,0.,-1.));
#357=DIRECTION('',(-1.,0.,0.));
#358=DIRECTION('',(0.,0.,-1.));
#359=DIRECTION('',(-1.,0.,0.));
#360=DIRECTION('',(1.,0.,0.));
#361=DIRECTION('',(0.,-1.,0.));
#362=DIRECTION('',(1.,0.,0.));
#363=DIRECTION('',(-1.,0.,0.));
#364=DIRECTION('',(0.,0.,1.));
#365=DIRECTION('',(0.,-1.,0.));
#366=DIRECTION('',(0.,0.,-1.));
#367=DIRECTION('',(0.,0.,-1.));
#368=DIRECTION('',(0.,1.,0.));
#369=DIRECTION('',(0.,0.,1.));
#370=DIRECTION('',(1.,0.,0.));
#371=DIRECTION('',(0.,1.,0.));
#372=DIRECTION('',(0.,0.,1.));
#373=DIRECTION('',(-1.,0.,0.));
#374=DIRECTION('',(0.,0.,1.));
#375=DIRECTION('',(1.,0.,0.));
#376=DIRECTION('',(0.,1.,0.));
#377=DIRECTION('',(0.,1.,0.));
#378=DIRECTION('',(-1.,0.,-1.4685489743719E-16));
#379=DIRECTION('',(-1.4685489743719E-16,0.,1.));
#380=DIRECTION('',(-1.,0.,0.));
#381=DIRECTION('',(0.,0.,1.));
#382=DIRECTION('',(0.,0.,-1.));
#383=DIRECTION('',(-1.,0.,0.));
#384=DIRECTION('',(0.,0.,-1.));
#385=DIRECTION('',(-1.,0.,0.));
#386=DIRECTION('',(0.,0.,-1.));
#387=DIRECTION('',(-1.,0.,0.));
#388=DIRECTION('',(0.,0.,-1.));
#389=DIRECTION('',(-1.,0.,0.));
#390=DIRECTION('',(0.,0.,1.));
#391=DIRECTION('',(1.,0.,0.));
#392=DIRECTION('',(0.,0.,1.));
#393=DIRECTION('',(1.,0.,0.));
#394=DIRECTION('',(0.,0.,1.));
#395=DIRECTION('',(1.,0.,0.));
#396=DIRECTION('',(0.,0.,-1.));
#397=DIRECTION('',(-1.,0.,0.));
#398=DIRECTION('',(0.,0.,-1.));
#399=DIRECTION('',(-1.,0.,0.));
#400=DIRECTION('',(0.,0.,1.));
#401=DIRECTION('',(1.,0.,0.));
#402=DIRECTION('',(0.,0.,1.));
#403=DIRECTION('',(1.,0.,0.));
#404=DIRECTION('',(0.,0.,1.));
#405=DIRECTION('',(1.,0.,0.));
#406=DIRECTION('',(0.,0.,-1.));
#407=DIRECTION('',(-1.,0.,0.));
#408=DIRECTION('',(0.,0.,-1.));
#409=DIRECTION('',(-1.,0.,0.));
#410=CARTESIAN_POINT('',(0.,0.,0.));
#411=CARTESIAN_POINT('',(175.,54.,-124.5));
#412=CARTESIAN_POINT('',(175.,37.,-124.5));
#413=CARTESIAN_POINT('',(162.5,37.,-124.5));
#414=CARTESIAN_POINT('',(-162.5,37.,-124.5));
#415=CARTESIAN_POINT('',(162.5,-41.4367724062642,-124.5));
#416=CARTESIAN_POINT('',(162.5,17.,-124.5));
#417=CARTESIAN_POINT('',(-175.,17.,-124.5));
#418=CARTESIAN_POINT('',(-162.5,17.,-124.5));
#419=CARTESIAN_POINT('',(-162.5,-41.4367724062642,-124.5));
#420=CARTESIAN_POINT('',(-175.,54.,-124.5));
#421=CARTESIAN_POINT('',(-175.,54.,-124.5));
#422=CARTESIAN_POINT('',(-175.,54.,64.5));
#423=CARTESIAN_POINT('',(-175.,54.,124.5));
#424=CARTESIAN_POINT('',(-175.,17.,64.5));
#425=CARTESIAN_POINT('',(-175.,0.,64.5));
#426=CARTESIAN_POINT('',(-175.,0.,-124.5));
#427=CARTESIAN_POINT('',(-175.,0.,124.5));
#428=CARTESIAN_POINT('',(-175.,54.,124.5));
#429=CARTESIAN_POINT('',(0.,17.,0.));
#430=CARTESIAN_POINT('',(162.5,17.,0.));
#431=CARTESIAN_POINT('',(162.5,17.,64.5));
#432=CARTESIAN_POINT('',(175.,17.,64.5));
#433=CARTESIAN_POINT('',(-162.5,17.,64.5));
#434=CARTESIAN_POINT('',(-162.5,17.,-2.38639208335434E-14));
#435=CARTESIAN_POINT('',(0.,37.,0.));
#436=CARTESIAN_POINT('',(162.5,37.,-124.5));
#437=CARTESIAN_POINT('',(162.5,37.,64.5));
#438=CARTESIAN_POINT('',(-162.5,37.,-124.5));
#439=CARTESIAN_POINT('',(-162.5,37.,64.5));
#440=CARTESIAN_POINT('',(-175.,37.,64.5));
#441=CARTESIAN_POINT('',(-175.,54.,124.5));
#442=CARTESIAN_POINT('',(-110.,27.,124.5));
#443=CARTESIAN_POINT('',(-116.5,27.,124.5));
#444=CARTESIAN_POINT('',(110.487111793331,27.,124.5));
#445=CARTESIAN_POINT('',(103.987111793331,27.,124.5));
#446=CARTESIAN_POINT('',(-175.,0.,124.5));
#447=CARTESIAN_POINT('',(175.,0.,124.5));
#448=CARTESIAN_POINT('',(175.,54.,124.5));
#449=CARTESIAN_POINT('',(175.,54.,124.5));
#450=CARTESIAN_POINT('',(-175.,54.,124.5));
#451=CARTESIAN_POINT('',(175.,54.,124.5));
#452=CARTESIAN_POINT('',(175.,17.,64.5));
#453=CARTESIAN_POINT('',(175.,54.,64.5));
#454=CARTESIAN_POINT('',(175.,0.,64.5));
#455=CARTESIAN_POINT('',(175.,54.,124.5));
#456=CARTESIAN_POINT('',(175.,0.,124.5));
#457=CARTESIAN_POINT('',(0.,54.,0.));
#458=CARTESIAN_POINT('',(-175.,54.,64.5));
#459=CARTESIAN_POINT('',(0.,0.,0.));
#460=CARTESIAN_POINT('',(175.,0.,64.5));
#461=CARTESIAN_POINT('',(175.,17.,64.5));
#462=CARTESIAN_POINT('',(162.5,-41.4367724062642,64.5));
#463=CARTESIAN_POINT('',(-162.5,-41.4367724062642,64.5));
#464=CARTESIAN_POINT('',(-162.5,-41.4367724062642,-124.5));
#465=CARTESIAN_POINT('',(162.5,-41.4367724062642,-124.5));
#466=CARTESIAN_POINT('',(110.487111793331,27.,624.5));
#467=CARTESIAN_POINT('',(110.487111793331,27.,544.5));
#468=CARTESIAN_POINT('',(103.987111793331,27.,544.5));
#469=CARTESIAN_POINT('',(-110.,27.,624.5));
#470=CARTESIAN_POINT('',(-110.,27.,544.5));
#471=CARTESIAN_POINT('',(-116.5,27.,544.5));
#472=CARTESIAN_POINT('',(110.487111793331,27.,624.5));
#473=CARTESIAN_POINT('',(110.487111793331,27.,544.5));
#474=CARTESIAN_POINT('',(137.987111793331,27.,544.5));
#475=CARTESIAN_POINT('',(110.487111793331,27.,624.5));
#476=CARTESIAN_POINT('',(140.487111793331,27.,624.5));
#477=CARTESIAN_POINT('',(108.010322691719,33.0096186023854,544.5));
#478=CARTESIAN_POINT('',(110.487111793331,27.,624.5));
#479=CARTESIAN_POINT('',(-110.,27.,624.5));
#480=CARTESIAN_POINT('',(-110.,27.,544.5));
#481=CARTESIAN_POINT('',(-82.5,27.,544.5));
#482=CARTESIAN_POINT('',(-110.,27.,624.5));
#483=CARTESIAN_POINT('',(-80.,27.,624.5));
#484=CARTESIAN_POINT('',(-112.04136393705,33.1711290114946,544.5));
#485=CARTESIAN_POINT('',(-110.,27.,624.5));
#486=MECHANICAL_DESIGN_GEOMETRIC_PRESENTATION_REPRESENTATION('',(#291),
#487);
#487=(
GEOMETRIC_REPRESENTATION_CONTEXT(3)
GLOBAL_UNCERTAINTY_ASSIGNED_CONTEXT((#488))
GLOBAL_UNIT_ASSIGNED_CONTEXT((#491,#490,#489))
REPRESENTATION_CONTEXT('SNP 1018.2 P LED 230V',
'TOP_LEVEL_ASSEMBLY_PART')
);
#488=UNCERTAINTY_MEASURE_WITH_UNIT(LENGTH_MEASURE(0.005),#491,
'DISTANCE_ACCURACY_VALUE','Maximum Tolerance applied to model');
#489=(
NAMED_UNIT(*)
SI_UNIT($,.STERADIAN.)
SOLID_ANGLE_UNIT()
);
#490=(
NAMED_UNIT(*)
PLANE_ANGLE_UNIT()
SI_UNIT($,.RADIAN.)
);
#491=(
LENGTH_UNIT()
NAMED_UNIT(*)
SI_UNIT(.MILLI.,.METRE.)
);
#492=PRODUCT_DEFINITION_SHAPE('','',#493);
#493=PRODUCT_DEFINITION('','',#495,#494);
#494=PRODUCT_DEFINITION_CONTEXT('',#501,'design');
#495=PRODUCT_DEFINITION_FORMATION_WITH_SPECIFIED_SOURCE('','',#497,
 .NOT_KNOWN.);
#496=PRODUCT_RELATED_PRODUCT_CATEGORY('','',(#497));
#497=PRODUCT('SNP 1018.2 P LED 230V','SNP 1018.2 P LED 230V',
'SNP 1018.2 P LED 230V',(#499));
#498=PRODUCT_CATEGORY('','');
#499=PRODUCT_CONTEXT('',#501,'mechanical');
#500=APPLICATION_PROTOCOL_DEFINITION('international standard',
'automotive_design',2010,#501);
#501=APPLICATION_CONTEXT(
'core data for automotive mechanical design processes');
ENDSEC;
END-ISO-10303-21;
