ISO-10303-21;
HEADER;
/* Generated by software containing ST-Developer
 * from STEP Tools, Inc. (www.steptools.com) 
 */
/* OPTION: strings as raw bytes, not using required /X/ escapes */

FILE_DESCRIPTION(
/* description */ ('Unknown'),
/* implementation_level */ '2;1');

FILE_NAME(
/* name */ 'SNP 1030',
/* time_stamp */ '2020-06-17T11:45:22+02:00',
/* author */ ('Unknown'),
/* organization */ ('Unknown'),
/* preprocessor_version */ 'ST-DEVELOPER v16.7',
/* originating_system */ 'Solid Edge',
/* authorisation */ 'Unknown');

FILE_SCHEMA (('AUTOMOTIVE_DESIGN {1 0 10303 214 3 1 1}'));
ENDSEC;

DATA;
#10=PROPERTY_DEFINITION_REPRESENTATION(#14,#12);
#11=PROPERTY_DEFINITION_REPRESENTATION(#15,#13);
#12=REPRESENTATION('',(#16),#535);
#13=REPRESENTATION('',(#17),#535);
#14=PROPERTY_DEFINITION('pmi validation property','',#540);
#15=PROPERTY_DEFINITION('pmi validation property','',#540);
#16=VALUE_REPRESENTATION_ITEM('number of annotations',COUNT_MEASURE(0.));
#17=VALUE_REPRESENTATION_ITEM('number of views',COUNT_MEASURE(0.));
#18=SHAPE_REPRESENTATION_RELATIONSHIP('','',#345,#19);
#19=ADVANCED_BREP_SHAPE_REPRESENTATION('',(#343),#535);
#20=ORIENTED_EDGE('',*,*,#104,.T.);
#21=ORIENTED_EDGE('',*,*,#105,.T.);
#22=ORIENTED_EDGE('',*,*,#106,.T.);
#23=ORIENTED_EDGE('',*,*,#107,.T.);
#24=ORIENTED_EDGE('',*,*,#108,.F.);
#25=ORIENTED_EDGE('',*,*,#109,.F.);
#26=ORIENTED_EDGE('',*,*,#110,.F.);
#27=ORIENTED_EDGE('',*,*,#111,.F.);
#28=ORIENTED_EDGE('',*,*,#112,.T.);
#29=ORIENTED_EDGE('',*,*,#113,.F.);
#30=ORIENTED_EDGE('',*,*,#114,.F.);
#31=ORIENTED_EDGE('',*,*,#115,.T.);
#32=ORIENTED_EDGE('',*,*,#116,.T.);
#33=ORIENTED_EDGE('',*,*,#117,.F.);
#34=ORIENTED_EDGE('',*,*,#118,.F.);
#35=ORIENTED_EDGE('',*,*,#113,.T.);
#36=ORIENTED_EDGE('',*,*,#119,.F.);
#37=ORIENTED_EDGE('',*,*,#120,.F.);
#38=ORIENTED_EDGE('',*,*,#121,.F.);
#39=ORIENTED_EDGE('',*,*,#122,.F.);
#40=ORIENTED_EDGE('',*,*,#123,.T.);
#41=ORIENTED_EDGE('',*,*,#124,.F.);
#42=ORIENTED_EDGE('',*,*,#125,.F.);
#43=ORIENTED_EDGE('',*,*,#117,.T.);
#44=ORIENTED_EDGE('',*,*,#126,.T.);
#45=ORIENTED_EDGE('',*,*,#127,.F.);
#46=ORIENTED_EDGE('',*,*,#128,.F.);
#47=ORIENTED_EDGE('',*,*,#124,.T.);
#48=ORIENTED_EDGE('',*,*,#129,.T.);
#49=ORIENTED_EDGE('',*,*,#130,.F.);
#50=ORIENTED_EDGE('',*,*,#131,.F.);
#51=ORIENTED_EDGE('',*,*,#127,.T.);
#52=ORIENTED_EDGE('',*,*,#132,.T.);
#53=ORIENTED_EDGE('',*,*,#115,.F.);
#54=ORIENTED_EDGE('',*,*,#133,.F.);
#55=ORIENTED_EDGE('',*,*,#130,.T.);
#56=ORIENTED_EDGE('',*,*,#114,.T.);
#57=ORIENTED_EDGE('',*,*,#118,.T.);
#58=ORIENTED_EDGE('',*,*,#125,.T.);
#59=ORIENTED_EDGE('',*,*,#128,.T.);
#60=ORIENTED_EDGE('',*,*,#131,.T.);
#61=ORIENTED_EDGE('',*,*,#133,.T.);
#62=ORIENTED_EDGE('',*,*,#112,.F.);
#63=ORIENTED_EDGE('',*,*,#132,.F.);
#64=ORIENTED_EDGE('',*,*,#129,.F.);
#65=ORIENTED_EDGE('',*,*,#126,.F.);
#66=ORIENTED_EDGE('',*,*,#123,.F.);
#67=ORIENTED_EDGE('',*,*,#116,.F.);
#68=ORIENTED_EDGE('',*,*,#120,.T.);
#69=ORIENTED_EDGE('',*,*,#134,.F.);
#70=ORIENTED_EDGE('',*,*,#104,.F.);
#71=ORIENTED_EDGE('',*,*,#135,.T.);
#72=ORIENTED_EDGE('',*,*,#119,.T.);
#73=ORIENTED_EDGE('',*,*,#136,.F.);
#74=ORIENTED_EDGE('',*,*,#105,.F.);
#75=ORIENTED_EDGE('',*,*,#134,.T.);
#76=ORIENTED_EDGE('',*,*,#122,.T.);
#77=ORIENTED_EDGE('',*,*,#137,.F.);
#78=ORIENTED_EDGE('',*,*,#106,.F.);
#79=ORIENTED_EDGE('',*,*,#136,.T.);
#80=ORIENTED_EDGE('',*,*,#121,.T.);
#81=ORIENTED_EDGE('',*,*,#135,.F.);
#82=ORIENTED_EDGE('',*,*,#107,.F.);
#83=ORIENTED_EDGE('',*,*,#137,.T.);
#84=ORIENTED_EDGE('',*,*,#109,.T.);
#85=ORIENTED_EDGE('',*,*,#138,.F.);
#86=ORIENTED_EDGE('',*,*,#139,.F.);
#87=ORIENTED_EDGE('',*,*,#140,.T.);
#88=ORIENTED_EDGE('',*,*,#108,.T.);
#89=ORIENTED_EDGE('',*,*,#141,.F.);
#90=ORIENTED_EDGE('',*,*,#142,.F.);
#91=ORIENTED_EDGE('',*,*,#138,.T.);
#92=ORIENTED_EDGE('',*,*,#111,.T.);
#93=ORIENTED_EDGE('',*,*,#143,.F.);
#94=ORIENTED_EDGE('',*,*,#144,.F.);
#95=ORIENTED_EDGE('',*,*,#141,.T.);
#96=ORIENTED_EDGE('',*,*,#110,.T.);
#97=ORIENTED_EDGE('',*,*,#140,.F.);
#98=ORIENTED_EDGE('',*,*,#145,.F.);
#99=ORIENTED_EDGE('',*,*,#143,.T.);
#100=ORIENTED_EDGE('',*,*,#139,.T.);
#101=ORIENTED_EDGE('',*,*,#142,.T.);
#102=ORIENTED_EDGE('',*,*,#144,.T.);
#103=ORIENTED_EDGE('',*,*,#145,.T.);
#104=EDGE_CURVE('',#146,#147,#174,.T.);
#105=EDGE_CURVE('',#147,#148,#175,.T.);
#106=EDGE_CURVE('',#148,#149,#176,.T.);
#107=EDGE_CURVE('',#149,#146,#177,.T.);
#108=EDGE_CURVE('',#150,#151,#178,.T.);
#109=EDGE_CURVE('',#152,#150,#179,.T.);
#110=EDGE_CURVE('',#153,#152,#180,.T.);
#111=EDGE_CURVE('',#151,#153,#181,.T.);
#112=EDGE_CURVE('',#154,#155,#182,.T.);
#113=EDGE_CURVE('',#156,#155,#183,.T.);
#114=EDGE_CURVE('',#157,#156,#184,.T.);
#115=EDGE_CURVE('',#157,#154,#185,.T.);
#116=EDGE_CURVE('',#155,#158,#186,.T.);
#117=EDGE_CURVE('',#159,#158,#187,.T.);
#118=EDGE_CURVE('',#156,#159,#188,.T.);
#119=EDGE_CURVE('',#160,#161,#189,.T.);
#120=EDGE_CURVE('',#162,#160,#190,.T.);
#121=EDGE_CURVE('',#163,#162,#191,.T.);
#122=EDGE_CURVE('',#161,#163,#192,.T.);
#123=EDGE_CURVE('',#158,#164,#193,.T.);
#124=EDGE_CURVE('',#165,#164,#194,.T.);
#125=EDGE_CURVE('',#159,#165,#195,.T.);
#126=EDGE_CURVE('',#164,#166,#196,.T.);
#127=EDGE_CURVE('',#167,#166,#197,.T.);
#128=EDGE_CURVE('',#165,#167,#198,.T.);
#129=EDGE_CURVE('',#166,#168,#199,.T.);
#130=EDGE_CURVE('',#169,#168,#200,.T.);
#131=EDGE_CURVE('',#167,#169,#201,.T.);
#132=EDGE_CURVE('',#168,#154,#202,.T.);
#133=EDGE_CURVE('',#169,#157,#203,.T.);
#134=EDGE_CURVE('',#147,#160,#204,.T.);
#135=EDGE_CURVE('',#146,#162,#205,.T.);
#136=EDGE_CURVE('',#148,#161,#206,.T.);
#137=EDGE_CURVE('',#149,#163,#207,.T.);
#138=EDGE_CURVE('',#170,#150,#208,.T.);
#139=EDGE_CURVE('',#171,#170,#209,.T.);
#140=EDGE_CURVE('',#171,#152,#210,.T.);
#141=EDGE_CURVE('',#172,#151,#211,.T.);
#142=EDGE_CURVE('',#170,#172,#212,.T.);
#143=EDGE_CURVE('',#173,#153,#213,.T.);
#144=EDGE_CURVE('',#172,#173,#214,.T.);
#145=EDGE_CURVE('',#173,#171,#215,.T.);
#146=VERTEX_POINT('',#448);
#147=VERTEX_POINT('',#449);
#148=VERTEX_POINT('',#451);
#149=VERTEX_POINT('',#453);
#150=VERTEX_POINT('',#456);
#151=VERTEX_POINT('',#457);
#152=VERTEX_POINT('',#459);
#153=VERTEX_POINT('',#461);
#154=VERTEX_POINT('',#465);
#155=VERTEX_POINT('',#466);
#156=VERTEX_POINT('',#468);
#157=VERTEX_POINT('',#470);
#158=VERTEX_POINT('',#474);
#159=VERTEX_POINT('',#476);
#160=VERTEX_POINT('',#480);
#161=VERTEX_POINT('',#481);
#162=VERTEX_POINT('',#483);
#163=VERTEX_POINT('',#485);
#164=VERTEX_POINT('',#488);
#165=VERTEX_POINT('',#490);
#166=VERTEX_POINT('',#494);
#167=VERTEX_POINT('',#496);
#168=VERTEX_POINT('',#500);
#169=VERTEX_POINT('',#502);
#170=VERTEX_POINT('',#519);
#171=VERTEX_POINT('',#521);
#172=VERTEX_POINT('',#525);
#173=VERTEX_POINT('',#529);
#174=LINE('',#447,#216);
#175=LINE('',#450,#217);
#176=LINE('',#452,#218);
#177=LINE('',#454,#219);
#178=LINE('',#455,#220);
#179=LINE('',#458,#221);
#180=LINE('',#460,#222);
#181=LINE('',#462,#223);
#182=LINE('',#464,#224);
#183=LINE('',#467,#225);
#184=LINE('',#469,#226);
#185=LINE('',#471,#227);
#186=LINE('',#473,#228);
#187=LINE('',#475,#229);
#188=LINE('',#477,#230);
#189=LINE('',#479,#231);
#190=LINE('',#482,#232);
#191=LINE('',#484,#233);
#192=LINE('',#486,#234);
#193=LINE('',#487,#235);
#194=LINE('',#489,#236);
#195=LINE('',#491,#237);
#196=LINE('',#493,#238);
#197=LINE('',#495,#239);
#198=LINE('',#497,#240);
#199=LINE('',#499,#241);
#200=LINE('',#501,#242);
#201=LINE('',#503,#243);
#202=LINE('',#505,#244);
#203=LINE('',#506,#245);
#204=LINE('',#510,#246);
#205=LINE('',#511,#247);
#206=LINE('',#513,#248);
#207=LINE('',#515,#249);
#208=LINE('',#518,#250);
#209=LINE('',#520,#251);
#210=LINE('',#522,#252);
#211=LINE('',#524,#253);
#212=LINE('',#526,#254);
#213=LINE('',#528,#255);
#214=LINE('',#530,#256);
#215=LINE('',#532,#257);
#216=VECTOR('',#369,1000.);
#217=VECTOR('',#370,1000.);
#218=VECTOR('',#371,1000.);
#219=VECTOR('',#372,1000.);
#220=VECTOR('',#373,1000.);
#221=VECTOR('',#374,1000.);
#222=VECTOR('',#375,1000.);
#223=VECTOR('',#376,1000.);
#224=VECTOR('',#379,1000.);
#225=VECTOR('',#380,1000.);
#226=VECTOR('',#381,1000.);
#227=VECTOR('',#382,1000.);
#228=VECTOR('',#385,1000.);
#229=VECTOR('',#386,1000.);
#230=VECTOR('',#387,1000.);
#231=VECTOR('',#390,1000.);
#232=VECTOR('',#391,1000.);
#233=VECTOR('',#392,1000.);
#234=VECTOR('',#393,1000.);
#235=VECTOR('',#394,1000.);
#236=VECTOR('',#395,1000.);
#237=VECTOR('',#396,1000.);
#238=VECTOR('',#399,1000.);
#239=VECTOR('',#400,1000.);
#240=VECTOR('',#401,1000.);
#241=VECTOR('',#404,1000.);
#242=VECTOR('',#405,1000.);
#243=VECTOR('',#406,1000.);
#244=VECTOR('',#409,1000.);
#245=VECTOR('',#410,1000.);
#246=VECTOR('',#417,1000.);
#247=VECTOR('',#418,1000.);
#248=VECTOR('',#421,1000.);
#249=VECTOR('',#424,1000.);
#250=VECTOR('',#429,1000.);
#251=VECTOR('',#430,1000.);
#252=VECTOR('',#431,1000.);
#253=VECTOR('',#434,1000.);
#254=VECTOR('',#435,1000.);
#255=VECTOR('',#438,1000.);
#256=VECTOR('',#439,1000.);
#257=VECTOR('',#442,1000.);
#258=EDGE_LOOP('',(#20,#21,#22,#23));
#259=EDGE_LOOP('',(#24,#25,#26,#27));
#260=EDGE_LOOP('',(#28,#29,#30,#31));
#261=EDGE_LOOP('',(#32,#33,#34,#35));
#262=EDGE_LOOP('',(#36,#37,#38,#39));
#263=EDGE_LOOP('',(#40,#41,#42,#43));
#264=EDGE_LOOP('',(#44,#45,#46,#47));
#265=EDGE_LOOP('',(#48,#49,#50,#51));
#266=EDGE_LOOP('',(#52,#53,#54,#55));
#267=EDGE_LOOP('',(#56,#57,#58,#59,#60,#61));
#268=EDGE_LOOP('',(#62,#63,#64,#65,#66,#67));
#269=EDGE_LOOP('',(#68,#69,#70,#71));
#270=EDGE_LOOP('',(#72,#73,#74,#75));
#271=EDGE_LOOP('',(#76,#77,#78,#79));
#272=EDGE_LOOP('',(#80,#81,#82,#83));
#273=EDGE_LOOP('',(#84,#85,#86,#87));
#274=EDGE_LOOP('',(#88,#89,#90,#91));
#275=EDGE_LOOP('',(#92,#93,#94,#95));
#276=EDGE_LOOP('',(#96,#97,#98,#99));
#277=EDGE_LOOP('',(#100,#101,#102,#103));
#278=FACE_BOUND('',#258,.T.);
#279=FACE_BOUND('',#259,.T.);
#280=FACE_BOUND('',#260,.T.);
#281=FACE_BOUND('',#261,.T.);
#282=FACE_BOUND('',#262,.T.);
#283=FACE_BOUND('',#263,.T.);
#284=FACE_BOUND('',#264,.T.);
#285=FACE_BOUND('',#265,.T.);
#286=FACE_BOUND('',#266,.T.);
#287=FACE_BOUND('',#267,.T.);
#288=FACE_BOUND('',#268,.T.);
#289=FACE_BOUND('',#269,.T.);
#290=FACE_BOUND('',#270,.T.);
#291=FACE_BOUND('',#271,.T.);
#292=FACE_BOUND('',#272,.T.);
#293=FACE_BOUND('',#273,.T.);
#294=FACE_BOUND('',#274,.T.);
#295=FACE_BOUND('',#275,.T.);
#296=FACE_BOUND('',#276,.T.);
#297=FACE_BOUND('',#277,.T.);
#298=PLANE('',#347);
#299=PLANE('',#348);
#300=PLANE('',#349);
#301=PLANE('',#350);
#302=PLANE('',#351);
#303=PLANE('',#352);
#304=PLANE('',#353);
#305=PLANE('',#354);
#306=PLANE('',#355);
#307=PLANE('',#356);
#308=PLANE('',#357);
#309=PLANE('',#358);
#310=PLANE('',#359);
#311=PLANE('',#360);
#312=PLANE('',#361);
#313=PLANE('',#362);
#314=PLANE('',#363);
#315=PLANE('',#364);
#316=ADVANCED_FACE('',(#278,#279),#298,.T.);
#317=ADVANCED_FACE('',(#280),#299,.F.);
#318=ADVANCED_FACE('',(#281),#300,.F.);
#319=ADVANCED_FACE('',(#282,#283),#301,.F.);
#320=ADVANCED_FACE('',(#284),#302,.F.);
#321=ADVANCED_FACE('',(#285),#303,.F.);
#322=ADVANCED_FACE('',(#286),#304,.F.);
#323=ADVANCED_FACE('',(#287),#305,.T.);
#324=ADVANCED_FACE('',(#288),#306,.F.);
#325=ADVANCED_FACE('',(#289),#307,.F.);
#326=ADVANCED_FACE('',(#290),#308,.F.);
#327=ADVANCED_FACE('',(#291),#309,.F.);
#328=ADVANCED_FACE('',(#292),#310,.F.);
#329=ADVANCED_FACE('',(#293),#311,.F.);
#330=ADVANCED_FACE('',(#294),#312,.F.);
#331=ADVANCED_FACE('',(#295),#313,.F.);
#332=ADVANCED_FACE('',(#296),#314,.F.);
#333=ADVANCED_FACE('',(#297),#315,.T.);
#334=CLOSED_SHELL('',(#316,#317,#318,#319,#320,#321,#322,#323,#324,#325,
#326,#327,#328,#329,#330,#331,#332,#333));
#335=STYLED_ITEM('',(#336),#343);
#336=PRESENTATION_STYLE_ASSIGNMENT((#337));
#337=SURFACE_STYLE_USAGE(.BOTH.,#338);
#338=SURFACE_SIDE_STYLE('',(#339));
#339=SURFACE_STYLE_FILL_AREA(#340);
#340=FILL_AREA_STYLE('',(#341));
#341=FILL_AREA_STYLE_COLOUR('',#342);
#342=COLOUR_RGB('',0.645180702209473,0.678915679454803,0.699999988079071);
#343=MANIFOLD_SOLID_BREP('',#334);
#344=SHAPE_DEFINITION_REPRESENTATION(#540,#345);
#345=SHAPE_REPRESENTATION('SNP 1030',(#346),#535);
#346=AXIS2_PLACEMENT_3D('',#445,#365,#366);
#347=AXIS2_PLACEMENT_3D('',#446,#367,#368);
#348=AXIS2_PLACEMENT_3D('',#463,#377,#378);
#349=AXIS2_PLACEMENT_3D('',#472,#383,#384);
#350=AXIS2_PLACEMENT_3D('',#478,#388,#389);
#351=AXIS2_PLACEMENT_3D('',#492,#397,#398);
#352=AXIS2_PLACEMENT_3D('',#498,#402,#403);
#353=AXIS2_PLACEMENT_3D('',#504,#407,#408);
#354=AXIS2_PLACEMENT_3D('',#507,#411,#412);
#355=AXIS2_PLACEMENT_3D('',#508,#413,#414);
#356=AXIS2_PLACEMENT_3D('',#509,#415,#416);
#357=AXIS2_PLACEMENT_3D('',#512,#419,#420);
#358=AXIS2_PLACEMENT_3D('',#514,#422,#423);
#359=AXIS2_PLACEMENT_3D('',#516,#425,#426);
#360=AXIS2_PLACEMENT_3D('',#517,#427,#428);
#361=AXIS2_PLACEMENT_3D('',#523,#432,#433);
#362=AXIS2_PLACEMENT_3D('',#527,#436,#437);
#363=AXIS2_PLACEMENT_3D('',#531,#440,#441);
#364=AXIS2_PLACEMENT_3D('',#533,#443,#444);
#365=DIRECTION('',(0.,0.,1.));
#366=DIRECTION('',(1.,0.,0.));
#367=DIRECTION('',(0.,0.,-1.));
#368=DIRECTION('',(-1.,0.,0.));
#369=DIRECTION('',(0.,1.,0.));
#370=DIRECTION('',(1.,-5.77366361142054E-17,0.));
#371=DIRECTION('',(0.,-1.,0.));
#372=DIRECTION('',(-1.,-6.82342063167882E-17,0.));
#373=DIRECTION('',(1.,0.,0.));
#374=DIRECTION('',(0.,1.,0.));
#375=DIRECTION('',(-1.,0.,0.));
#376=DIRECTION('',(0.,-1.,0.));
#377=DIRECTION('',(0.,1.,1.92747052886312E-16));
#378=DIRECTION('',(0.,-1.92747052886312E-16,1.));
#379=DIRECTION('',(0.,1.92747052886312E-16,-1.));
#380=DIRECTION('',(-1.,0.,0.));
#381=DIRECTION('',(0.,1.92747052886312E-16,-1.));
#382=DIRECTION('',(-1.,0.,0.));
#383=DIRECTION('',(0.,0.970597531580739,0.240708187832023));
#384=DIRECTION('',(0.,-0.240708187832023,0.970597531580739));
#385=DIRECTION('',(0.,0.240708187832023,-0.970597531580739));
#386=DIRECTION('',(-1.,0.,0.));
#387=DIRECTION('',(0.,0.240708187832023,-0.970597531580739));
#388=DIRECTION('',(0.,0.,1.));
#389=DIRECTION('',(1.,0.,0.));
#390=DIRECTION('',(1.,-5.77366361142054E-17,0.));
#391=DIRECTION('',(0.,1.,0.));
#392=DIRECTION('',(-1.,-6.82342063167882E-17,0.));
#393=DIRECTION('',(0.,-1.,0.));
#394=DIRECTION('',(0.,1.,0.));
#395=DIRECTION('',(-1.,0.,0.));
#396=DIRECTION('',(0.,1.,0.));
#397=DIRECTION('',(0.,-0.970597531580739,0.240708187832023));
#398=DIRECTION('',(0.,-0.240708187832023,-0.970597531580739));
#399=DIRECTION('',(0.,0.240708187832023,0.970597531580739));
#400=DIRECTION('',(-1.,0.,0.));
#401=DIRECTION('',(0.,0.240708187832023,0.970597531580739));
#402=DIRECTION('',(0.,-1.,0.));
#403=DIRECTION('',(0.,0.,-1.));
#404=DIRECTION('',(0.,0.,1.));
#405=DIRECTION('',(-1.,0.,0.));
#406=DIRECTION('',(0.,0.,1.));
#407=DIRECTION('',(0.,7.56420120338724E-16,-1.));
#408=DIRECTION('',(0.,1.,7.56420120338724E-16));
#409=DIRECTION('',(0.,-1.,-7.56420120338724E-16));
#410=DIRECTION('',(0.,-1.,-7.56420120338724E-16));
#411=DIRECTION('',(1.,0.,0.));
#412=DIRECTION('',(0.,0.,-1.));
#413=DIRECTION('',(1.,0.,0.));
#414=DIRECTION('',(0.,0.,-1.));
#415=DIRECTION('',(-1.,0.,0.));
#416=DIRECTION('',(0.,0.,1.));
#417=DIRECTION('',(0.,0.,-1.));
#418=DIRECTION('',(0.,0.,-1.));
#419=DIRECTION('',(5.77366361142054E-17,1.,0.));
#420=DIRECTION('',(-1.,5.77366361142054E-17,0.));
#421=DIRECTION('',(0.,0.,-1.));
#422=DIRECTION('',(1.,0.,0.));
#423=DIRECTION('',(0.,0.,-1.));
#424=DIRECTION('',(0.,0.,-1.));
#425=DIRECTION('',(6.82342063167882E-17,-1.,0.));
#426=DIRECTION('',(1.,6.82342063167882E-17,0.));
#427=DIRECTION('',(1.,0.,0.));
#428=DIRECTION('',(0.,0.,-1.));
#429=DIRECTION('',(0.,0.,1.));
#430=DIRECTION('',(0.,1.,0.));
#431=DIRECTION('',(0.,0.,1.));
#432=DIRECTION('',(0.,-1.,0.));
#433=DIRECTION('',(0.,0.,-1.));
#434=DIRECTION('',(0.,0.,1.));
#435=DIRECTION('',(1.,0.,0.));
#436=DIRECTION('',(-1.,0.,0.));
#437=DIRECTION('',(0.,0.,1.));
#438=DIRECTION('',(0.,0.,1.));
#439=DIRECTION('',(0.,-1.,0.));
#440=DIRECTION('',(0.,1.,0.));
#441=DIRECTION('',(0.,0.,1.));
#442=DIRECTION('',(-1.,0.,0.));
#443=DIRECTION('',(0.,0.,-1.));
#444=DIRECTION('',(-1.,0.,0.));
#445=CARTESIAN_POINT('',(0.,0.,0.));
#446=CARTESIAN_POINT('',(0.,0.,-54.3960592154163));
#447=CARTESIAN_POINT('',(13.65,-4.50000000000002,-54.3960592154163));
#448=CARTESIAN_POINT('',(13.65,-4.50000000000002,-54.3960592154163));
#449=CARTESIAN_POINT('',(13.65,4.50000000000002,-54.3960592154163));
#450=CARTESIAN_POINT('',(13.65,4.50000000000002,-54.3960592154163));
#451=CARTESIAN_POINT('',(344.15,4.5,-54.3960592154163));
#452=CARTESIAN_POINT('',(344.15,4.5,-54.3960592154163));
#453=CARTESIAN_POINT('',(344.15,-4.5,-54.3960592154163));
#454=CARTESIAN_POINT('',(344.15,-4.5,-54.3960592154163));
#455=CARTESIAN_POINT('',(13.9,4.,-54.3960592154163));
#456=CARTESIAN_POINT('',(13.9,4.,-54.3960592154163));
#457=CARTESIAN_POINT('',(343.9,4.,-54.3960592154163));
#458=CARTESIAN_POINT('',(13.9,-4.,-54.3960592154163));
#459=CARTESIAN_POINT('',(13.9,-4.,-54.3960592154163));
#460=CARTESIAN_POINT('',(343.9,-4.,-54.3960592154163));
#461=CARTESIAN_POINT('',(343.9,-4.,-54.3960592154163));
#462=CARTESIAN_POINT('',(343.9,4.,-54.3960592154163));
#463=CARTESIAN_POINT('',(357.8,-17.2,4.60394078458369));
#464=CARTESIAN_POINT('',(0.,-17.2,4.60394078458369));
#465=CARTESIAN_POINT('',(0.,-17.2,4.60394078458369));
#466=CARTESIAN_POINT('',(0.,-17.2,-31.3960592154163));
#467=CARTESIAN_POINT('',(357.8,-17.2,-31.3960592154163));
#468=CARTESIAN_POINT('',(357.8,-17.2,-31.3960592154163));
#469=CARTESIAN_POINT('',(357.8,-17.2,4.60394078458369));
#470=CARTESIAN_POINT('',(357.8,-17.2,4.60394078458369));
#471=CARTESIAN_POINT('',(357.8,-17.2,4.60394078458369));
#472=CARTESIAN_POINT('',(357.8,-17.2,-31.3960592154163));
#473=CARTESIAN_POINT('',(0.,-17.2,-31.3960592154163));
#474=CARTESIAN_POINT('',(0.,-11.,-56.3960592154163));
#475=CARTESIAN_POINT('',(357.8,-11.,-56.3960592154163));
#476=CARTESIAN_POINT('',(357.8,-11.,-56.3960592154163));
#477=CARTESIAN_POINT('',(357.8,-17.2,-31.3960592154163));
#478=CARTESIAN_POINT('',(357.8,-11.,-56.3960592154163));
#479=CARTESIAN_POINT('',(13.65,4.50000000000002,-56.3960592154163));
#480=CARTESIAN_POINT('',(13.65,4.50000000000002,-56.3960592154163));
#481=CARTESIAN_POINT('',(344.15,4.5,-56.3960592154163));
#482=CARTESIAN_POINT('',(13.65,-4.50000000000002,-56.3960592154163));
#483=CARTESIAN_POINT('',(13.65,-4.50000000000002,-56.3960592154163));
#484=CARTESIAN_POINT('',(344.15,-4.5,-56.3960592154163));
#485=CARTESIAN_POINT('',(344.15,-4.5,-56.3960592154163));
#486=CARTESIAN_POINT('',(344.15,4.5,-56.3960592154163));
#487=CARTESIAN_POINT('',(0.,-11.,-56.3960592154163));
#488=CARTESIAN_POINT('',(0.,11.,-56.3960592154163));
#489=CARTESIAN_POINT('',(357.8,11.,-56.3960592154163));
#490=CARTESIAN_POINT('',(357.8,11.,-56.3960592154163));
#491=CARTESIAN_POINT('',(357.8,-11.,-56.3960592154163));
#492=CARTESIAN_POINT('',(357.8,11.,-56.3960592154163));
#493=CARTESIAN_POINT('',(0.,11.,-56.3960592154163));
#494=CARTESIAN_POINT('',(0.,17.2,-31.3960592154163));
#495=CARTESIAN_POINT('',(357.8,17.2,-31.3960592154163));
#496=CARTESIAN_POINT('',(357.8,17.2,-31.3960592154163));
#497=CARTESIAN_POINT('',(357.8,11.,-56.3960592154163));
#498=CARTESIAN_POINT('',(357.8,17.2,-31.3960592154163));
#499=CARTESIAN_POINT('',(0.,17.2,-31.3960592154163));
#500=CARTESIAN_POINT('',(0.,17.2,4.60394078458372));
#501=CARTESIAN_POINT('',(357.8,17.2,4.60394078458372));
#502=CARTESIAN_POINT('',(357.8,17.2,4.60394078458372));
#503=CARTESIAN_POINT('',(357.8,17.2,-31.3960592154163));
#504=CARTESIAN_POINT('',(357.8,17.2,4.60394078458372));
#505=CARTESIAN_POINT('',(0.,17.2,4.60394078458372));
#506=CARTESIAN_POINT('',(357.8,17.2,4.60394078458372));
#507=CARTESIAN_POINT('',(357.8,0.,0.));
#508=CARTESIAN_POINT('',(0.,0.,0.));
#509=CARTESIAN_POINT('',(13.65,-4.50000000000002,-54.3960592154163));
#510=CARTESIAN_POINT('',(13.65,4.50000000000002,-54.3960592154163));
#511=CARTESIAN_POINT('',(13.65,-4.50000000000002,-54.3960592154163));
#512=CARTESIAN_POINT('',(13.65,4.50000000000002,-54.3960592154163));
#513=CARTESIAN_POINT('',(344.15,4.5,-54.3960592154163));
#514=CARTESIAN_POINT('',(344.15,4.5,-54.3960592154163));
#515=CARTESIAN_POINT('',(344.15,-4.5,-54.3960592154163));
#516=CARTESIAN_POINT('',(344.15,-4.5,-54.3960592154163));
#517=CARTESIAN_POINT('',(13.9,-4.,-238.896059215416));
#518=CARTESIAN_POINT('',(13.9,4.,-238.896059215416));
#519=CARTESIAN_POINT('',(13.9,4.,-238.896059215416));
#520=CARTESIAN_POINT('',(13.9,-4.,-238.896059215416));
#521=CARTESIAN_POINT('',(13.9,-4.,-238.896059215416));
#522=CARTESIAN_POINT('',(13.9,-4.,-238.896059215416));
#523=CARTESIAN_POINT('',(13.9,4.,-238.896059215416));
#524=CARTESIAN_POINT('',(343.9,4.,-238.896059215416));
#525=CARTESIAN_POINT('',(343.9,4.,-238.896059215416));
#526=CARTESIAN_POINT('',(13.9,4.,-238.896059215416));
#527=CARTESIAN_POINT('',(343.9,4.,-238.896059215416));
#528=CARTESIAN_POINT('',(343.9,-4.,-238.896059215416));
#529=CARTESIAN_POINT('',(343.9,-4.,-238.896059215416));
#530=CARTESIAN_POINT('',(343.9,4.,-238.896059215416));
#531=CARTESIAN_POINT('',(343.9,-4.,-238.896059215416));
#532=CARTESIAN_POINT('',(343.9,-4.,-238.896059215416));
#533=CARTESIAN_POINT('',(0.,0.,-238.896059215416));
#534=MECHANICAL_DESIGN_GEOMETRIC_PRESENTATION_REPRESENTATION('',(#335),
#535);
#535=(
GEOMETRIC_REPRESENTATION_CONTEXT(3)
GLOBAL_UNCERTAINTY_ASSIGNED_CONTEXT((#536))
GLOBAL_UNIT_ASSIGNED_CONTEXT((#539,#538,#537))
REPRESENTATION_CONTEXT('SNP 1030','TOP_LEVEL_ASSEMBLY_PART')
);
#536=UNCERTAINTY_MEASURE_WITH_UNIT(LENGTH_MEASURE(0.005),#539,
'DISTANCE_ACCURACY_VALUE','Maximum Tolerance applied to model');
#537=(
NAMED_UNIT(*)
SI_UNIT($,.STERADIAN.)
SOLID_ANGLE_UNIT()
);
#538=(
NAMED_UNIT(*)
PLANE_ANGLE_UNIT()
SI_UNIT($,.RADIAN.)
);
#539=(
LENGTH_UNIT()
NAMED_UNIT(*)
SI_UNIT(.MILLI.,.METRE.)
);
#540=PRODUCT_DEFINITION_SHAPE('','',#541);
#541=PRODUCT_DEFINITION('','',#543,#542);
#542=PRODUCT_DEFINITION_CONTEXT('',#549,'design');
#543=PRODUCT_DEFINITION_FORMATION_WITH_SPECIFIED_SOURCE('','',#545,
 .NOT_KNOWN.);
#544=PRODUCT_RELATED_PRODUCT_CATEGORY('','',(#545));
#545=PRODUCT('SNP 1030','SNP 1030','SNP 1030',(#547));
#546=PRODUCT_CATEGORY('','');
#547=PRODUCT_CONTEXT('',#549,'mechanical');
#548=APPLICATION_PROTOCOL_DEFINITION('international standard',
'automotive_design',2010,#549);
#549=APPLICATION_CONTEXT(
'core data for automotive mechanical design processes');
ENDSEC;
END-ISO-10303-21;
