ISO-10303-21;
HEADER;
/* Generated by software containing ST-Developer
 * from STEP Tools, Inc. (www.steptools.com) 
 */
/* OPTION: strings as raw bytes, not using required /X/ escapes */

FILE_DESCRIPTION(
/* description */ ('Unknown'),
/* implementation_level */ '2;1');

FILE_NAME(
/* name */ 'SNP 1216 D LED 24V',
/* time_stamp */ '2018-09-24T11:05:56+02:00',
/* author */ ('Unknown'),
/* organization */ ('Unknown'),
/* preprocessor_version */ 'ST-DEVELOPER v16.7',
/* originating_system */ 'DEX',
/* authorisation */ $);

FILE_SCHEMA (('AUTOMOTIVE_DESIGN {1 0 10303 214 3 1 1}'));
ENDSEC;

DATA;
#10=PROPERTY_DEFINITION_REPRESENTATION(#14,#12);
#11=PROPERTY_DEFINITION_REPRESENTATION(#15,#13);
#12=REPRESENTATION('',(#16),#459);
#13=REPRESENTATION('',(#17),#459);
#14=PROPERTY_DEFINITION('pmi validation property','',#464);
#15=PROPERTY_DEFINITION('pmi validation property','',#464);
#16=VALUE_REPRESENTATION_ITEM('number of annotations',COUNT_MEASURE(0.));
#17=VALUE_REPRESENTATION_ITEM('number of views',COUNT_MEASURE(0.));
#18=SHAPE_REPRESENTATION_RELATIONSHIP('','',#297,#19);
#19=ADVANCED_BREP_SHAPE_REPRESENTATION('',(#295),#459);
#20=ORIENTED_EDGE('',*,*,#92,.F.);
#21=ORIENTED_EDGE('',*,*,#93,.T.);
#22=ORIENTED_EDGE('',*,*,#94,.T.);
#23=ORIENTED_EDGE('',*,*,#95,.T.);
#24=ORIENTED_EDGE('',*,*,#96,.F.);
#25=ORIENTED_EDGE('',*,*,#97,.F.);
#26=ORIENTED_EDGE('',*,*,#98,.F.);
#27=ORIENTED_EDGE('',*,*,#99,.T.);
#28=ORIENTED_EDGE('',*,*,#93,.F.);
#29=ORIENTED_EDGE('',*,*,#100,.F.);
#30=ORIENTED_EDGE('',*,*,#101,.F.);
#31=ORIENTED_EDGE('',*,*,#102,.T.);
#32=ORIENTED_EDGE('',*,*,#94,.F.);
#33=ORIENTED_EDGE('',*,*,#99,.F.);
#34=ORIENTED_EDGE('',*,*,#103,.F.);
#35=ORIENTED_EDGE('',*,*,#104,.T.);
#36=ORIENTED_EDGE('',*,*,#95,.F.);
#37=ORIENTED_EDGE('',*,*,#104,.F.);
#38=ORIENTED_EDGE('',*,*,#105,.F.);
#39=ORIENTED_EDGE('',*,*,#106,.T.);
#40=ORIENTED_EDGE('',*,*,#107,.F.);
#41=ORIENTED_EDGE('',*,*,#108,.F.);
#42=ORIENTED_EDGE('',*,*,#109,.F.);
#43=ORIENTED_EDGE('',*,*,#110,.T.);
#44=ORIENTED_EDGE('',*,*,#111,.F.);
#45=ORIENTED_EDGE('',*,*,#106,.F.);
#46=ORIENTED_EDGE('',*,*,#112,.F.);
#47=ORIENTED_EDGE('',*,*,#97,.T.);
#48=ORIENTED_EDGE('',*,*,#113,.F.);
#49=ORIENTED_EDGE('',*,*,#107,.T.);
#50=ORIENTED_EDGE('',*,*,#111,.T.);
#51=ORIENTED_EDGE('',*,*,#96,.T.);
#52=ORIENTED_EDGE('',*,*,#114,.F.);
#53=ORIENTED_EDGE('',*,*,#115,.F.);
#54=ORIENTED_EDGE('',*,*,#116,.F.);
#55=ORIENTED_EDGE('',*,*,#117,.F.);
#56=ORIENTED_EDGE('',*,*,#105,.T.);
#57=ORIENTED_EDGE('',*,*,#103,.T.);
#58=ORIENTED_EDGE('',*,*,#98,.T.);
#59=ORIENTED_EDGE('',*,*,#112,.T.);
#60=ORIENTED_EDGE('',*,*,#114,.T.);
#61=ORIENTED_EDGE('',*,*,#118,.F.);
#62=ORIENTED_EDGE('',*,*,#119,.F.);
#63=ORIENTED_EDGE('',*,*,#120,.T.);
#64=ORIENTED_EDGE('',*,*,#117,.T.);
#65=ORIENTED_EDGE('',*,*,#121,.F.);
#66=ORIENTED_EDGE('',*,*,#122,.F.);
#67=ORIENTED_EDGE('',*,*,#118,.T.);
#68=ORIENTED_EDGE('',*,*,#116,.T.);
#69=ORIENTED_EDGE('',*,*,#123,.F.);
#70=ORIENTED_EDGE('',*,*,#124,.F.);
#71=ORIENTED_EDGE('',*,*,#121,.T.);
#72=ORIENTED_EDGE('',*,*,#115,.T.);
#73=ORIENTED_EDGE('',*,*,#120,.F.);
#74=ORIENTED_EDGE('',*,*,#125,.F.);
#75=ORIENTED_EDGE('',*,*,#123,.T.);
#76=ORIENTED_EDGE('',*,*,#119,.T.);
#77=ORIENTED_EDGE('',*,*,#122,.T.);
#78=ORIENTED_EDGE('',*,*,#124,.T.);
#79=ORIENTED_EDGE('',*,*,#125,.T.);
#80=ORIENTED_EDGE('',*,*,#113,.T.);
#81=ORIENTED_EDGE('',*,*,#102,.F.);
#82=ORIENTED_EDGE('',*,*,#126,.F.);
#83=ORIENTED_EDGE('',*,*,#108,.T.);
#84=ORIENTED_EDGE('',*,*,#92,.T.);
#85=ORIENTED_EDGE('',*,*,#110,.F.);
#86=ORIENTED_EDGE('',*,*,#127,.F.);
#87=ORIENTED_EDGE('',*,*,#100,.T.);
#88=ORIENTED_EDGE('',*,*,#109,.T.);
#89=ORIENTED_EDGE('',*,*,#126,.T.);
#90=ORIENTED_EDGE('',*,*,#101,.T.);
#91=ORIENTED_EDGE('',*,*,#127,.T.);
#92=EDGE_CURVE('',#128,#129,#152,.T.);
#93=EDGE_CURVE('',#128,#130,#153,.T.);
#94=EDGE_CURVE('',#130,#131,#154,.T.);
#95=EDGE_CURVE('',#131,#129,#155,.T.);
#96=EDGE_CURVE('',#132,#133,#156,.T.);
#97=EDGE_CURVE('',#134,#132,#157,.T.);
#98=EDGE_CURVE('',#135,#134,#158,.T.);
#99=EDGE_CURVE('',#135,#130,#159,.T.);
#100=EDGE_CURVE('',#136,#128,#160,.T.);
#101=EDGE_CURVE('',#137,#136,#161,.T.);
#102=EDGE_CURVE('',#137,#133,#162,.T.);
#103=EDGE_CURVE('',#138,#135,#163,.T.);
#104=EDGE_CURVE('',#138,#131,#164,.T.);
#105=EDGE_CURVE('',#139,#138,#165,.T.);
#106=EDGE_CURVE('',#139,#140,#166,.T.);
#107=EDGE_CURVE('',#141,#140,#167,.T.);
#108=EDGE_CURVE('',#142,#141,#168,.T.);
#109=EDGE_CURVE('',#143,#142,#169,.T.);
#110=EDGE_CURVE('',#143,#129,#170,.T.);
#111=EDGE_CURVE('',#140,#132,#171,.T.);
#112=EDGE_CURVE('',#134,#139,#172,.T.);
#113=EDGE_CURVE('',#141,#133,#173,.T.);
#114=EDGE_CURVE('',#144,#145,#174,.T.);
#115=EDGE_CURVE('',#146,#144,#175,.T.);
#116=EDGE_CURVE('',#147,#146,#176,.T.);
#117=EDGE_CURVE('',#145,#147,#177,.T.);
#118=EDGE_CURVE('',#148,#145,#178,.T.);
#119=EDGE_CURVE('',#149,#148,#179,.T.);
#120=EDGE_CURVE('',#149,#144,#180,.T.);
#121=EDGE_CURVE('',#150,#147,#181,.T.);
#122=EDGE_CURVE('',#148,#150,#182,.T.);
#123=EDGE_CURVE('',#151,#146,#183,.T.);
#124=EDGE_CURVE('',#150,#151,#184,.T.);
#125=EDGE_CURVE('',#151,#149,#185,.T.);
#126=EDGE_CURVE('',#142,#137,#186,.T.);
#127=EDGE_CURVE('',#136,#143,#187,.T.);
#128=VERTEX_POINT('',#385);
#129=VERTEX_POINT('',#386);
#130=VERTEX_POINT('',#388);
#131=VERTEX_POINT('',#390);
#132=VERTEX_POINT('',#394);
#133=VERTEX_POINT('',#395);
#134=VERTEX_POINT('',#397);
#135=VERTEX_POINT('',#399);
#136=VERTEX_POINT('',#402);
#137=VERTEX_POINT('',#404);
#138=VERTEX_POINT('',#408);
#139=VERTEX_POINT('',#412);
#140=VERTEX_POINT('',#414);
#141=VERTEX_POINT('',#416);
#142=VERTEX_POINT('',#418);
#143=VERTEX_POINT('',#420);
#144=VERTEX_POINT('',#429);
#145=VERTEX_POINT('',#430);
#146=VERTEX_POINT('',#432);
#147=VERTEX_POINT('',#434);
#148=VERTEX_POINT('',#438);
#149=VERTEX_POINT('',#440);
#150=VERTEX_POINT('',#444);
#151=VERTEX_POINT('',#448);
#152=LINE('',#384,#188);
#153=LINE('',#387,#189);
#154=LINE('',#389,#190);
#155=LINE('',#391,#191);
#156=LINE('',#393,#192);
#157=LINE('',#396,#193);
#158=LINE('',#398,#194);
#159=LINE('',#400,#195);
#160=LINE('',#401,#196);
#161=LINE('',#403,#197);
#162=LINE('',#405,#198);
#163=LINE('',#407,#199);
#164=LINE('',#409,#200);
#165=LINE('',#411,#201);
#166=LINE('',#413,#202);
#167=LINE('',#415,#203);
#168=LINE('',#417,#204);
#169=LINE('',#419,#205);
#170=LINE('',#421,#206);
#171=LINE('',#423,#207);
#172=LINE('',#424,#208);
#173=LINE('',#426,#209);
#174=LINE('',#428,#210);
#175=LINE('',#431,#211);
#176=LINE('',#433,#212);
#177=LINE('',#435,#213);
#178=LINE('',#437,#214);
#179=LINE('',#439,#215);
#180=LINE('',#441,#216);
#181=LINE('',#443,#217);
#182=LINE('',#445,#218);
#183=LINE('',#447,#219);
#184=LINE('',#449,#220);
#185=LINE('',#451,#221);
#186=LINE('',#454,#222);
#187=LINE('',#456,#223);
#188=VECTOR('',#318,1000.);
#189=VECTOR('',#319,1000.);
#190=VECTOR('',#320,1000.);
#191=VECTOR('',#321,1000.);
#192=VECTOR('',#324,1000.);
#193=VECTOR('',#325,1000.);
#194=VECTOR('',#326,1000.);
#195=VECTOR('',#327,1000.);
#196=VECTOR('',#328,1000.);
#197=VECTOR('',#329,1000.);
#198=VECTOR('',#330,1000.);
#199=VECTOR('',#333,1000.);
#200=VECTOR('',#334,1000.);
#201=VECTOR('',#337,1000.);
#202=VECTOR('',#338,1000.);
#203=VECTOR('',#339,1000.);
#204=VECTOR('',#340,1000.);
#205=VECTOR('',#341,1000.);
#206=VECTOR('',#342,1000.);
#207=VECTOR('',#345,1000.);
#208=VECTOR('',#346,1000.);
#209=VECTOR('',#349,1000.);
#210=VECTOR('',#352,1000.);
#211=VECTOR('',#353,1000.);
#212=VECTOR('',#354,1000.);
#213=VECTOR('',#355,1000.);
#214=VECTOR('',#358,1000.);
#215=VECTOR('',#359,1000.);
#216=VECTOR('',#360,1000.);
#217=VECTOR('',#363,1000.);
#218=VECTOR('',#364,1000.);
#219=VECTOR('',#367,1000.);
#220=VECTOR('',#368,1000.);
#221=VECTOR('',#371,1000.);
#222=VECTOR('',#376,1000.);
#223=VECTOR('',#379,1000.);
#224=EDGE_LOOP('',(#20,#21,#22,#23));
#225=EDGE_LOOP('',(#24,#25,#26,#27,#28,#29,#30,#31));
#226=EDGE_LOOP('',(#32,#33,#34,#35));
#227=EDGE_LOOP('',(#36,#37,#38,#39,#40,#41,#42,#43));
#228=EDGE_LOOP('',(#44,#45,#46,#47));
#229=EDGE_LOOP('',(#48,#49,#50,#51));
#230=EDGE_LOOP('',(#52,#53,#54,#55));
#231=EDGE_LOOP('',(#56,#57,#58,#59));
#232=EDGE_LOOP('',(#60,#61,#62,#63));
#233=EDGE_LOOP('',(#64,#65,#66,#67));
#234=EDGE_LOOP('',(#68,#69,#70,#71));
#235=EDGE_LOOP('',(#72,#73,#74,#75));
#236=EDGE_LOOP('',(#76,#77,#78,#79));
#237=EDGE_LOOP('',(#80,#81,#82,#83));
#238=EDGE_LOOP('',(#84,#85,#86,#87));
#239=EDGE_LOOP('',(#88,#89,#90,#91));
#240=FACE_BOUND('',#224,.T.);
#241=FACE_BOUND('',#225,.T.);
#242=FACE_BOUND('',#226,.T.);
#243=FACE_BOUND('',#227,.T.);
#244=FACE_BOUND('',#228,.T.);
#245=FACE_BOUND('',#229,.T.);
#246=FACE_BOUND('',#230,.T.);
#247=FACE_BOUND('',#231,.T.);
#248=FACE_BOUND('',#232,.T.);
#249=FACE_BOUND('',#233,.T.);
#250=FACE_BOUND('',#234,.T.);
#251=FACE_BOUND('',#235,.T.);
#252=FACE_BOUND('',#236,.T.);
#253=FACE_BOUND('',#237,.T.);
#254=FACE_BOUND('',#238,.T.);
#255=FACE_BOUND('',#239,.T.);
#256=PLANE('',#299);
#257=PLANE('',#300);
#258=PLANE('',#301);
#259=PLANE('',#302);
#260=PLANE('',#303);
#261=PLANE('',#304);
#262=PLANE('',#305);
#263=PLANE('',#306);
#264=PLANE('',#307);
#265=PLANE('',#308);
#266=PLANE('',#309);
#267=PLANE('',#310);
#268=PLANE('',#311);
#269=PLANE('',#312);
#270=PLANE('',#313);
#271=ADVANCED_FACE('',(#240),#256,.T.);
#272=ADVANCED_FACE('',(#241),#257,.T.);
#273=ADVANCED_FACE('',(#242),#258,.T.);
#274=ADVANCED_FACE('',(#243),#259,.T.);
#275=ADVANCED_FACE('',(#244),#260,.T.);
#276=ADVANCED_FACE('',(#245),#261,.T.);
#277=ADVANCED_FACE('',(#246,#247),#262,.T.);
#278=ADVANCED_FACE('',(#248),#263,.F.);
#279=ADVANCED_FACE('',(#249),#264,.F.);
#280=ADVANCED_FACE('',(#250),#265,.F.);
#281=ADVANCED_FACE('',(#251),#266,.F.);
#282=ADVANCED_FACE('',(#252),#267,.T.);
#283=ADVANCED_FACE('',(#253),#268,.F.);
#284=ADVANCED_FACE('',(#254),#269,.F.);
#285=ADVANCED_FACE('',(#255),#270,.T.);
#286=CLOSED_SHELL('',(#271,#272,#273,#274,#275,#276,#277,#278,#279,#280,
#281,#282,#283,#284,#285));
#287=STYLED_ITEM('',(#288),#295);
#288=PRESENTATION_STYLE_ASSIGNMENT((#289));
#289=SURFACE_STYLE_USAGE(.BOTH.,#290);
#290=SURFACE_SIDE_STYLE('',(#291));
#291=SURFACE_STYLE_FILL_AREA(#292);
#292=FILL_AREA_STYLE('',(#293));
#293=FILL_AREA_STYLE_COLOUR('',#294);
#294=COLOUR_RGB('',0.645180702209473,0.678915679454803,0.699999988079071);
#295=MANIFOLD_SOLID_BREP('',#286);
#296=SHAPE_DEFINITION_REPRESENTATION(#464,#297);
#297=SHAPE_REPRESENTATION('SNP 1216 D LED 24V',(#298),#459);
#298=AXIS2_PLACEMENT_3D('',#382,#314,#315);
#299=AXIS2_PLACEMENT_3D('',#383,#316,#317);
#300=AXIS2_PLACEMENT_3D('',#392,#322,#323);
#301=AXIS2_PLACEMENT_3D('',#406,#331,#332);
#302=AXIS2_PLACEMENT_3D('',#410,#335,#336);
#303=AXIS2_PLACEMENT_3D('',#422,#343,#344);
#304=AXIS2_PLACEMENT_3D('',#425,#347,#348);
#305=AXIS2_PLACEMENT_3D('',#427,#350,#351);
#306=AXIS2_PLACEMENT_3D('',#436,#356,#357);
#307=AXIS2_PLACEMENT_3D('',#442,#361,#362);
#308=AXIS2_PLACEMENT_3D('',#446,#365,#366);
#309=AXIS2_PLACEMENT_3D('',#450,#369,#370);
#310=AXIS2_PLACEMENT_3D('',#452,#372,#373);
#311=AXIS2_PLACEMENT_3D('',#453,#374,#375);
#312=AXIS2_PLACEMENT_3D('',#455,#377,#378);
#313=AXIS2_PLACEMENT_3D('',#457,#380,#381);
#314=DIRECTION('',(0.,0.,1.));
#315=DIRECTION('',(1.,0.,0.));
#316=DIRECTION('',(0.,0.,1.));
#317=DIRECTION('',(1.,0.,0.));
#318=DIRECTION('',(1.,1.21972744404619E-16,0.));
#319=DIRECTION('',(0.,-1.,0.));
#320=DIRECTION('',(1.,1.21972744404619E-16,0.));
#321=DIRECTION('',(0.,1.,0.));
#322=DIRECTION('',(-1.,0.,0.));
#323=DIRECTION('',(0.,0.,1.));
#324=DIRECTION('',(0.,-1.,0.));
#325=DIRECTION('',(0.,0.,1.));
#326=DIRECTION('',(0.,1.,0.));
#327=DIRECTION('',(0.,0.,1.));
#328=DIRECTION('',(0.,0.,-1.));
#329=DIRECTION('',(0.,-1.,0.));
#330=DIRECTION('',(0.,0.,-1.));
#331=DIRECTION('',(1.21972744404619E-16,-1.,0.));
#332=DIRECTION('',(1.,1.21972744404619E-16,0.));
#333=DIRECTION('',(-1.,1.21972744404619E-16,0.));
#334=DIRECTION('',(0.,0.,1.));
#335=DIRECTION('',(1.,0.,0.));
#336=DIRECTION('',(0.,0.,-1.));
#337=DIRECTION('',(0.,-1.,0.));
#338=DIRECTION('',(0.,0.,1.));
#339=DIRECTION('',(0.,1.,0.));
#340=DIRECTION('',(0.,0.,-1.));
#341=DIRECTION('',(0.,1.,0.));
#342=DIRECTION('',(0.,0.,-1.));
#343=DIRECTION('',(-1.21972744404619E-16,1.,0.));
#344=DIRECTION('',(-1.,-1.21972744404619E-16,0.));
#345=DIRECTION('',(-1.,-1.21972744404619E-16,0.));
#346=DIRECTION('',(1.,-1.21972744404619E-16,0.));
#347=DIRECTION('',(0.,0.,1.));
#348=DIRECTION('',(1.,0.,0.));
#349=DIRECTION('',(-1.,-1.21972744404619E-16,0.));
#350=DIRECTION('',(0.,0.,-1.));
#351=DIRECTION('',(-1.,0.,0.));
#352=DIRECTION('',(0.,-1.,0.));
#353=DIRECTION('',(1.,-1.25401697058564E-16,0.));
#354=DIRECTION('',(0.,1.,0.));
#355=DIRECTION('',(-1.,1.25401697058564E-16,0.));
#356=DIRECTION('',(-1.,0.,0.));
#357=DIRECTION('',(0.,0.,1.));
#358=DIRECTION('',(0.,0.,1.));
#359=DIRECTION('',(0.,-1.,0.));
#360=DIRECTION('',(0.,0.,1.));
#361=DIRECTION('',(1.25401697058564E-16,1.,0.));
#362=DIRECTION('',(-1.,1.25401697058564E-16,0.));
#363=DIRECTION('',(0.,0.,1.));
#364=DIRECTION('',(-1.,1.25401697058564E-16,0.));
#365=DIRECTION('',(1.,0.,0.));
#366=DIRECTION('',(0.,0.,-1.));
#367=DIRECTION('',(0.,0.,1.));
#368=DIRECTION('',(0.,1.,0.));
#369=DIRECTION('',(-1.25401697058564E-16,-1.,0.));
#370=DIRECTION('',(1.,-1.25401697058564E-16,0.));
#371=DIRECTION('',(1.,-1.25401697058564E-16,0.));
#372=DIRECTION('',(0.,0.,-1.));
#373=DIRECTION('',(-1.,0.,0.));
#374=DIRECTION('',(1.21972744404619E-16,-1.,0.));
#375=DIRECTION('',(1.,1.21972744404619E-16,0.));
#376=DIRECTION('',(-1.,-1.21972744404619E-16,0.));
#377=DIRECTION('',(-1.21972744404619E-16,1.,0.));
#378=DIRECTION('',(-1.,-1.21972744404619E-16,0.));
#379=DIRECTION('',(1.,1.21972744404619E-16,0.));
#380=DIRECTION('',(0.,0.,1.));
#381=DIRECTION('',(1.,0.,0.));
#382=CARTESIAN_POINT('',(0.,0.,0.));
#383=CARTESIAN_POINT('',(0.,0.,0.));
#384=CARTESIAN_POINT('',(-128.,-12.,0.));
#385=CARTESIAN_POINT('',(-128.,-12.,0.));
#386=CARTESIAN_POINT('',(128.,-12.,0.));
#387=CARTESIAN_POINT('',(-128.,14.,0.));
#388=CARTESIAN_POINT('',(-128.,-14.,0.));
#389=CARTESIAN_POINT('',(-128.,-14.,0.));
#390=CARTESIAN_POINT('',(128.,-14.,0.));
#391=CARTESIAN_POINT('',(128.,-14.,0.));
#392=CARTESIAN_POINT('',(-128.,14.,-1.));
#393=CARTESIAN_POINT('',(-128.,14.,0.));
#394=CARTESIAN_POINT('',(-128.,14.,0.));
#395=CARTESIAN_POINT('',(-128.,11.9999999999999,0.));
#396=CARTESIAN_POINT('',(-128.,14.,-1.));
#397=CARTESIAN_POINT('',(-128.,14.,-28.));
#398=CARTESIAN_POINT('',(-128.,-13.9999999999999,-28.));
#399=CARTESIAN_POINT('',(-128.,-13.9999999999999,-28.));
#400=CARTESIAN_POINT('',(-128.,-14.,-1.));
#401=CARTESIAN_POINT('',(-128.,-12.,11.));
#402=CARTESIAN_POINT('',(-128.,-12.,11.));
#403=CARTESIAN_POINT('',(-128.,11.9999999999999,11.));
#404=CARTESIAN_POINT('',(-128.,11.9999999999999,11.));
#405=CARTESIAN_POINT('',(-128.,11.9999999999999,11.));
#406=CARTESIAN_POINT('',(-128.,-14.,-1.));
#407=CARTESIAN_POINT('',(128.,-14.,-28.));
#408=CARTESIAN_POINT('',(128.,-14.,-28.));
#409=CARTESIAN_POINT('',(128.,-14.,-1.));
#410=CARTESIAN_POINT('',(128.,-14.,-1.));
#411=CARTESIAN_POINT('',(128.,14.,-28.));
#412=CARTESIAN_POINT('',(128.,14.,-28.));
#413=CARTESIAN_POINT('',(128.,14.,-1.));
#414=CARTESIAN_POINT('',(128.,14.,0.));
#415=CARTESIAN_POINT('',(128.,-14.,0.));
#416=CARTESIAN_POINT('',(128.,11.9999999999999,0.));
#417=CARTESIAN_POINT('',(128.,11.9999999999999,11.));
#418=CARTESIAN_POINT('',(128.,11.9999999999999,11.));
#419=CARTESIAN_POINT('',(128.,-12.,11.));
#420=CARTESIAN_POINT('',(128.,-12.,11.));
#421=CARTESIAN_POINT('',(128.,-12.,11.));
#422=CARTESIAN_POINT('',(128.,14.,-1.));
#423=CARTESIAN_POINT('',(128.,14.,0.));
#424=CARTESIAN_POINT('',(-128.,14.,-28.));
#425=CARTESIAN_POINT('',(0.,0.,0.));
#426=CARTESIAN_POINT('',(128.,11.9999999999999,0.));
#427=CARTESIAN_POINT('',(0.,0.,-28.));
#428=CARTESIAN_POINT('',(124.5,9.99999999999997,-28.));
#429=CARTESIAN_POINT('',(124.5,9.99999999999997,-28.));
#430=CARTESIAN_POINT('',(124.5,-9.99999999999997,-28.));
#431=CARTESIAN_POINT('',(-124.5,10.,-28.));
#432=CARTESIAN_POINT('',(-124.5,10.,-28.));
#433=CARTESIAN_POINT('',(-124.5,-9.99999999999994,-28.));
#434=CARTESIAN_POINT('',(-124.5,-9.99999999999994,-28.));
#435=CARTESIAN_POINT('',(124.5,-9.99999999999997,-28.));
#436=CARTESIAN_POINT('',(124.5,9.99999999999997,-169.));
#437=CARTESIAN_POINT('',(124.5,-9.99999999999997,-169.));
#438=CARTESIAN_POINT('',(124.5,-9.99999999999997,-169.));
#439=CARTESIAN_POINT('',(124.5,9.99999999999997,-169.));
#440=CARTESIAN_POINT('',(124.5,9.99999999999997,-169.));
#441=CARTESIAN_POINT('',(124.5,9.99999999999997,-169.));
#442=CARTESIAN_POINT('',(124.5,-9.99999999999997,-169.));
#443=CARTESIAN_POINT('',(-124.5,-9.99999999999994,-169.));
#444=CARTESIAN_POINT('',(-124.5,-9.99999999999994,-169.));
#445=CARTESIAN_POINT('',(124.5,-9.99999999999997,-169.));
#446=CARTESIAN_POINT('',(-124.5,-9.99999999999994,-169.));
#447=CARTESIAN_POINT('',(-124.5,10.,-169.));
#448=CARTESIAN_POINT('',(-124.5,10.,-169.));
#449=CARTESIAN_POINT('',(-124.5,-9.99999999999994,-169.));
#450=CARTESIAN_POINT('',(-124.5,10.,-169.));
#451=CARTESIAN_POINT('',(-124.5,10.,-169.));
#452=CARTESIAN_POINT('',(0.,0.,-169.));
#453=CARTESIAN_POINT('',(128.,11.9999999999999,11.));
#454=CARTESIAN_POINT('',(128.,11.9999999999999,11.));
#455=CARTESIAN_POINT('',(-128.,-12.,11.));
#456=CARTESIAN_POINT('',(-128.,-12.,11.));
#457=CARTESIAN_POINT('',(0.,0.,11.));
#458=MECHANICAL_DESIGN_GEOMETRIC_PRESENTATION_REPRESENTATION('',(#287),
#459);
#459=(
GEOMETRIC_REPRESENTATION_CONTEXT(3)
GLOBAL_UNCERTAINTY_ASSIGNED_CONTEXT((#460))
GLOBAL_UNIT_ASSIGNED_CONTEXT((#463,#462,#461))
REPRESENTATION_CONTEXT('SNP 1216 D LED 24V','TOP_LEVEL_ASSEMBLY_PART')
);
#460=UNCERTAINTY_MEASURE_WITH_UNIT(LENGTH_MEASURE(0.005),#463,
'DISTANCE_ACCURACY_VALUE','Maximum Tolerance applied to model');
#461=(
NAMED_UNIT(*)
SI_UNIT($,.STERADIAN.)
SOLID_ANGLE_UNIT()
);
#462=(
NAMED_UNIT(*)
PLANE_ANGLE_UNIT()
SI_UNIT($,.RADIAN.)
);
#463=(
LENGTH_UNIT()
NAMED_UNIT(*)
SI_UNIT(.MILLI.,.METRE.)
);
#464=PRODUCT_DEFINITION_SHAPE('','',#465);
#465=PRODUCT_DEFINITION('','',#467,#466);
#466=PRODUCT_DEFINITION_CONTEXT('',#473,'design');
#467=PRODUCT_DEFINITION_FORMATION_WITH_SPECIFIED_SOURCE('','',#469,
 .NOT_KNOWN.);
#468=PRODUCT_RELATED_PRODUCT_CATEGORY('','',(#469));
#469=PRODUCT('SNP 1216 D LED 24V','SNP 1216 D LED 24V',
'SNP 1216 D LED 24V',(#471));
#470=PRODUCT_CATEGORY('','');
#471=PRODUCT_CONTEXT('',#473,'mechanical');
#472=APPLICATION_PROTOCOL_DEFINITION('international standard',
'automotive_design',2010,#473);
#473=APPLICATION_CONTEXT(
'core data for automotive mechanical design processes');
ENDSEC;
END-ISO-10303-21;
