ISO-10303-21;
HEADER;
/* Generated by software containing ST-Developer
 * from STEP Tools, Inc. (www.steptools.com) 
 */
/* OPTION: strings as raw bytes, not using required /X/ escapes */

FILE_DESCRIPTION(
/* description */ ('Unknown'),
/* implementation_level */ '2;1');

FILE_NAME(
/* name */ 'SNP 1520 ES LED 230V',
/* time_stamp */ '2018-04-27T10:35:43+02:00',
/* author */ ('Unknown'),
/* organization */ ('Unknown'),
/* preprocessor_version */ 'ST-DEVELOPER v16.7',
/* originating_system */ 'DEX',
/* authorisation */ $);

FILE_SCHEMA (('AUTOMOTIVE_DESIGN {1 0 10303 214 3 1 1}'));
ENDSEC;

DATA;
#10=PROPERTY_DEFINITION_REPRESENTATION(#14,#12);
#11=PROPERTY_DEFINITION_REPRESENTATION(#15,#13);
#12=REPRESENTATION('',(#16),#703);
#13=REPRESENTATION('',(#17),#703);
#14=PROPERTY_DEFINITION('pmi validation property','',#708);
#15=PROPERTY_DEFINITION('pmi validation property','',#708);
#16=VALUE_REPRESENTATION_ITEM('number of annotations',COUNT_MEASURE(0.));
#17=VALUE_REPRESENTATION_ITEM('number of views',COUNT_MEASURE(0.));
#18=SHAPE_REPRESENTATION_RELATIONSHIP('','',#433,#19);
#19=ADVANCED_BREP_SHAPE_REPRESENTATION('',(#431),#703);
#20=CYLINDRICAL_SURFACE('',#444,5.);
#21=CYLINDRICAL_SURFACE('',#448,5.);
#22=CYLINDRICAL_SURFACE('',#452,3.);
#23=CYLINDRICAL_SURFACE('',#456,3.);
#24=CYLINDRICAL_SURFACE('',#460,0.750000000000001);
#25=CYLINDRICAL_SURFACE('',#462,0.750000000000001);
#26=CIRCLE('',#438,5.);
#27=CIRCLE('',#439,5.);
#28=CIRCLE('',#445,5.);
#29=CIRCLE('',#447,3.);
#30=CIRCLE('',#449,5.);
#31=CIRCLE('',#451,3.);
#32=CIRCLE('',#453,3.);
#33=CIRCLE('',#455,0.750000000000001);
#34=CIRCLE('',#457,3.);
#35=CIRCLE('',#459,0.750000000000001);
#36=CIRCLE('',#461,0.750000000000001);
#37=CIRCLE('',#463,0.750000000000001);
#38=ORIENTED_EDGE('',*,*,#134,.T.);
#39=ORIENTED_EDGE('',*,*,#135,.T.);
#40=ORIENTED_EDGE('',*,*,#136,.T.);
#41=ORIENTED_EDGE('',*,*,#137,.T.);
#42=ORIENTED_EDGE('',*,*,#138,.T.);
#43=ORIENTED_EDGE('',*,*,#139,.T.);
#44=ORIENTED_EDGE('',*,*,#140,.T.);
#45=ORIENTED_EDGE('',*,*,#141,.T.);
#46=ORIENTED_EDGE('',*,*,#142,.F.);
#47=ORIENTED_EDGE('',*,*,#143,.F.);
#48=ORIENTED_EDGE('',*,*,#144,.T.);
#49=ORIENTED_EDGE('',*,*,#145,.T.);
#50=ORIENTED_EDGE('',*,*,#146,.F.);
#51=ORIENTED_EDGE('',*,*,#147,.F.);
#52=ORIENTED_EDGE('',*,*,#148,.F.);
#53=ORIENTED_EDGE('',*,*,#145,.F.);
#54=ORIENTED_EDGE('',*,*,#149,.T.);
#55=ORIENTED_EDGE('',*,*,#150,.T.);
#56=ORIENTED_EDGE('',*,*,#151,.F.);
#57=ORIENTED_EDGE('',*,*,#150,.F.);
#58=ORIENTED_EDGE('',*,*,#152,.T.);
#59=ORIENTED_EDGE('',*,*,#153,.T.);
#60=ORIENTED_EDGE('',*,*,#154,.F.);
#61=ORIENTED_EDGE('',*,*,#153,.F.);
#62=ORIENTED_EDGE('',*,*,#155,.T.);
#63=ORIENTED_EDGE('',*,*,#143,.T.);
#64=ORIENTED_EDGE('',*,*,#144,.F.);
#65=ORIENTED_EDGE('',*,*,#155,.F.);
#66=ORIENTED_EDGE('',*,*,#152,.F.);
#67=ORIENTED_EDGE('',*,*,#149,.F.);
#68=ORIENTED_EDGE('',*,*,#142,.T.);
#69=ORIENTED_EDGE('',*,*,#148,.T.);
#70=ORIENTED_EDGE('',*,*,#151,.T.);
#71=ORIENTED_EDGE('',*,*,#154,.T.);
#72=ORIENTED_EDGE('',*,*,#156,.T.);
#73=ORIENTED_EDGE('',*,*,#147,.T.);
#74=ORIENTED_EDGE('',*,*,#157,.T.);
#75=ORIENTED_EDGE('',*,*,#156,.F.);
#76=ORIENTED_EDGE('',*,*,#158,.T.);
#77=ORIENTED_EDGE('',*,*,#146,.T.);
#78=ORIENTED_EDGE('',*,*,#159,.T.);
#79=ORIENTED_EDGE('',*,*,#158,.F.);
#80=ORIENTED_EDGE('',*,*,#160,.T.);
#81=ORIENTED_EDGE('',*,*,#157,.F.);
#82=ORIENTED_EDGE('',*,*,#161,.T.);
#83=ORIENTED_EDGE('',*,*,#160,.F.);
#84=ORIENTED_EDGE('',*,*,#162,.T.);
#85=ORIENTED_EDGE('',*,*,#159,.F.);
#86=ORIENTED_EDGE('',*,*,#163,.T.);
#87=ORIENTED_EDGE('',*,*,#162,.F.);
#88=ORIENTED_EDGE('',*,*,#164,.T.);
#89=ORIENTED_EDGE('',*,*,#161,.F.);
#90=ORIENTED_EDGE('',*,*,#165,.T.);
#91=ORIENTED_EDGE('',*,*,#163,.F.);
#92=ORIENTED_EDGE('',*,*,#166,.T.);
#93=ORIENTED_EDGE('',*,*,#167,.F.);
#94=ORIENTED_EDGE('',*,*,#134,.F.);
#95=ORIENTED_EDGE('',*,*,#168,.T.);
#96=ORIENTED_EDGE('',*,*,#169,.T.);
#97=ORIENTED_EDGE('',*,*,#170,.F.);
#98=ORIENTED_EDGE('',*,*,#135,.F.);
#99=ORIENTED_EDGE('',*,*,#167,.T.);
#100=ORIENTED_EDGE('',*,*,#171,.T.);
#101=ORIENTED_EDGE('',*,*,#172,.F.);
#102=ORIENTED_EDGE('',*,*,#136,.F.);
#103=ORIENTED_EDGE('',*,*,#170,.T.);
#104=ORIENTED_EDGE('',*,*,#173,.T.);
#105=ORIENTED_EDGE('',*,*,#168,.F.);
#106=ORIENTED_EDGE('',*,*,#137,.F.);
#107=ORIENTED_EDGE('',*,*,#172,.T.);
#108=ORIENTED_EDGE('',*,*,#164,.F.);
#109=ORIENTED_EDGE('',*,*,#165,.F.);
#110=ORIENTED_EDGE('',*,*,#166,.F.);
#111=ORIENTED_EDGE('',*,*,#173,.F.);
#112=ORIENTED_EDGE('',*,*,#171,.F.);
#113=ORIENTED_EDGE('',*,*,#169,.F.);
#114=ORIENTED_EDGE('',*,*,#139,.F.);
#115=ORIENTED_EDGE('',*,*,#174,.F.);
#116=ORIENTED_EDGE('',*,*,#175,.T.);
#117=ORIENTED_EDGE('',*,*,#176,.T.);
#118=ORIENTED_EDGE('',*,*,#140,.F.);
#119=ORIENTED_EDGE('',*,*,#176,.F.);
#120=ORIENTED_EDGE('',*,*,#177,.T.);
#121=ORIENTED_EDGE('',*,*,#178,.T.);
#122=ORIENTED_EDGE('',*,*,#141,.F.);
#123=ORIENTED_EDGE('',*,*,#178,.F.);
#124=ORIENTED_EDGE('',*,*,#179,.T.);
#125=ORIENTED_EDGE('',*,*,#180,.T.);
#126=ORIENTED_EDGE('',*,*,#138,.F.);
#127=ORIENTED_EDGE('',*,*,#180,.F.);
#128=ORIENTED_EDGE('',*,*,#181,.T.);
#129=ORIENTED_EDGE('',*,*,#174,.T.);
#130=ORIENTED_EDGE('',*,*,#175,.F.);
#131=ORIENTED_EDGE('',*,*,#181,.F.);
#132=ORIENTED_EDGE('',*,*,#179,.F.);
#133=ORIENTED_EDGE('',*,*,#177,.F.);
#134=EDGE_CURVE('',#182,#183,#218,.T.);
#135=EDGE_CURVE('',#183,#184,#219,.T.);
#136=EDGE_CURVE('',#184,#185,#220,.T.);
#137=EDGE_CURVE('',#185,#182,#221,.T.);
#138=EDGE_CURVE('',#186,#187,#222,.T.);
#139=EDGE_CURVE('',#187,#188,#223,.T.);
#140=EDGE_CURVE('',#188,#189,#224,.T.);
#141=EDGE_CURVE('',#189,#186,#225,.T.);
#142=EDGE_CURVE('',#190,#191,#226,.T.);
#143=EDGE_CURVE('',#192,#190,#227,.T.);
#144=EDGE_CURVE('',#192,#193,#228,.T.);
#145=EDGE_CURVE('',#193,#191,#229,.T.);
#146=EDGE_CURVE('',#194,#194,#26,.T.);
#147=EDGE_CURVE('',#195,#195,#27,.T.);
#148=EDGE_CURVE('',#191,#196,#230,.T.);
#149=EDGE_CURVE('',#193,#197,#231,.T.);
#150=EDGE_CURVE('',#197,#196,#232,.T.);
#151=EDGE_CURVE('',#196,#198,#233,.T.);
#152=EDGE_CURVE('',#197,#199,#234,.T.);
#153=EDGE_CURVE('',#199,#198,#235,.T.);
#154=EDGE_CURVE('',#198,#190,#236,.T.);
#155=EDGE_CURVE('',#199,#192,#237,.T.);
#156=EDGE_CURVE('',#200,#200,#28,.T.);
#157=EDGE_CURVE('',#201,#201,#29,.T.);
#158=EDGE_CURVE('',#202,#202,#30,.T.);
#159=EDGE_CURVE('',#203,#203,#31,.T.);
#160=EDGE_CURVE('',#204,#204,#32,.T.);
#161=EDGE_CURVE('',#205,#205,#33,.T.);
#162=EDGE_CURVE('',#206,#206,#34,.T.);
#163=EDGE_CURVE('',#207,#207,#35,.T.);
#164=EDGE_CURVE('',#208,#208,#36,.T.);
#165=EDGE_CURVE('',#209,#209,#37,.T.);
#166=EDGE_CURVE('',#210,#211,#238,.T.);
#167=EDGE_CURVE('',#183,#211,#239,.T.);
#168=EDGE_CURVE('',#182,#210,#240,.T.);
#169=EDGE_CURVE('',#211,#212,#241,.T.);
#170=EDGE_CURVE('',#184,#212,#242,.T.);
#171=EDGE_CURVE('',#212,#213,#243,.T.);
#172=EDGE_CURVE('',#185,#213,#244,.T.);
#173=EDGE_CURVE('',#213,#210,#245,.T.);
#174=EDGE_CURVE('',#214,#187,#246,.T.);
#175=EDGE_CURVE('',#214,#215,#247,.T.);
#176=EDGE_CURVE('',#215,#188,#248,.T.);
#177=EDGE_CURVE('',#215,#216,#249,.T.);
#178=EDGE_CURVE('',#216,#189,#250,.T.);
#179=EDGE_CURVE('',#216,#217,#251,.T.);
#180=EDGE_CURVE('',#217,#186,#252,.T.);
#181=EDGE_CURVE('',#217,#214,#253,.T.);
#182=VERTEX_POINT('',#593);
#183=VERTEX_POINT('',#594);
#184=VERTEX_POINT('',#596);
#185=VERTEX_POINT('',#598);
#186=VERTEX_POINT('',#601);
#187=VERTEX_POINT('',#602);
#188=VERTEX_POINT('',#604);
#189=VERTEX_POINT('',#606);
#190=VERTEX_POINT('',#610);
#191=VERTEX_POINT('',#611);
#192=VERTEX_POINT('',#613);
#193=VERTEX_POINT('',#615);
#194=VERTEX_POINT('',#619);
#195=VERTEX_POINT('',#621);
#196=VERTEX_POINT('',#623);
#197=VERTEX_POINT('',#625);
#198=VERTEX_POINT('',#629);
#199=VERTEX_POINT('',#631);
#200=VERTEX_POINT('',#640);
#201=VERTEX_POINT('',#643);
#202=VERTEX_POINT('',#646);
#203=VERTEX_POINT('',#649);
#204=VERTEX_POINT('',#652);
#205=VERTEX_POINT('',#655);
#206=VERTEX_POINT('',#658);
#207=VERTEX_POINT('',#661);
#208=VERTEX_POINT('',#664);
#209=VERTEX_POINT('',#667);
#210=VERTEX_POINT('',#670);
#211=VERTEX_POINT('',#671);
#212=VERTEX_POINT('',#676);
#213=VERTEX_POINT('',#680);
#214=VERTEX_POINT('',#687);
#215=VERTEX_POINT('',#689);
#216=VERTEX_POINT('',#693);
#217=VERTEX_POINT('',#697);
#218=LINE('',#592,#254);
#219=LINE('',#595,#255);
#220=LINE('',#597,#256);
#221=LINE('',#599,#257);
#222=LINE('',#600,#258);
#223=LINE('',#603,#259);
#224=LINE('',#605,#260);
#225=LINE('',#607,#261);
#226=LINE('',#609,#262);
#227=LINE('',#612,#263);
#228=LINE('',#614,#264);
#229=LINE('',#616,#265);
#230=LINE('',#622,#266);
#231=LINE('',#624,#267);
#232=LINE('',#626,#268);
#233=LINE('',#628,#269);
#234=LINE('',#630,#270);
#235=LINE('',#632,#271);
#236=LINE('',#634,#272);
#237=LINE('',#635,#273);
#238=LINE('',#669,#274);
#239=LINE('',#672,#275);
#240=LINE('',#673,#276);
#241=LINE('',#675,#277);
#242=LINE('',#677,#278);
#243=LINE('',#679,#279);
#244=LINE('',#681,#280);
#245=LINE('',#683,#281);
#246=LINE('',#686,#282);
#247=LINE('',#688,#283);
#248=LINE('',#690,#284);
#249=LINE('',#692,#285);
#250=LINE('',#694,#286);
#251=LINE('',#696,#287);
#252=LINE('',#698,#288);
#253=LINE('',#700,#289);
#254=VECTOR('',#478,1000.);
#255=VECTOR('',#479,1000.);
#256=VECTOR('',#480,1000.);
#257=VECTOR('',#481,1000.);
#258=VECTOR('',#482,1000.);
#259=VECTOR('',#483,1000.);
#260=VECTOR('',#484,1000.);
#261=VECTOR('',#485,1000.);
#262=VECTOR('',#488,1000.);
#263=VECTOR('',#489,1000.);
#264=VECTOR('',#490,1000.);
#265=VECTOR('',#491,1000.);
#266=VECTOR('',#498,1000.);
#267=VECTOR('',#499,1000.);
#268=VECTOR('',#500,1000.);
#269=VECTOR('',#503,1000.);
#270=VECTOR('',#504,1000.);
#271=VECTOR('',#505,1000.);
#272=VECTOR('',#508,1000.);
#273=VECTOR('',#509,1000.);
#274=VECTOR('',#556,1000.);
#275=VECTOR('',#557,1000.);
#276=VECTOR('',#558,1000.);
#277=VECTOR('',#561,1000.);
#278=VECTOR('',#562,1000.);
#279=VECTOR('',#565,1000.);
#280=VECTOR('',#566,1000.);
#281=VECTOR('',#569,1000.);
#282=VECTOR('',#574,1000.);
#283=VECTOR('',#575,1000.);
#284=VECTOR('',#576,1000.);
#285=VECTOR('',#579,1000.);
#286=VECTOR('',#580,1000.);
#287=VECTOR('',#583,1000.);
#288=VECTOR('',#584,1000.);
#289=VECTOR('',#587,1000.);
#290=EDGE_LOOP('',(#38,#39,#40,#41));
#291=EDGE_LOOP('',(#42,#43,#44,#45));
#292=EDGE_LOOP('',(#46,#47,#48,#49));
#293=EDGE_LOOP('',(#50));
#294=EDGE_LOOP('',(#51));
#295=EDGE_LOOP('',(#52,#53,#54,#55));
#296=EDGE_LOOP('',(#56,#57,#58,#59));
#297=EDGE_LOOP('',(#60,#61,#62,#63));
#298=EDGE_LOOP('',(#64,#65,#66,#67));
#299=EDGE_LOOP('',(#68,#69,#70,#71));
#300=EDGE_LOOP('',(#72));
#301=EDGE_LOOP('',(#73));
#302=EDGE_LOOP('',(#74));
#303=EDGE_LOOP('',(#75));
#304=EDGE_LOOP('',(#76));
#305=EDGE_LOOP('',(#77));
#306=EDGE_LOOP('',(#78));
#307=EDGE_LOOP('',(#79));
#308=EDGE_LOOP('',(#80));
#309=EDGE_LOOP('',(#81));
#310=EDGE_LOOP('',(#82));
#311=EDGE_LOOP('',(#83));
#312=EDGE_LOOP('',(#84));
#313=EDGE_LOOP('',(#85));
#314=EDGE_LOOP('',(#86));
#315=EDGE_LOOP('',(#87));
#316=EDGE_LOOP('',(#88));
#317=EDGE_LOOP('',(#89));
#318=EDGE_LOOP('',(#90));
#319=EDGE_LOOP('',(#91));
#320=EDGE_LOOP('',(#92,#93,#94,#95));
#321=EDGE_LOOP('',(#96,#97,#98,#99));
#322=EDGE_LOOP('',(#100,#101,#102,#103));
#323=EDGE_LOOP('',(#104,#105,#106,#107));
#324=EDGE_LOOP('',(#108));
#325=EDGE_LOOP('',(#109));
#326=EDGE_LOOP('',(#110,#111,#112,#113));
#327=EDGE_LOOP('',(#114,#115,#116,#117));
#328=EDGE_LOOP('',(#118,#119,#120,#121));
#329=EDGE_LOOP('',(#122,#123,#124,#125));
#330=EDGE_LOOP('',(#126,#127,#128,#129));
#331=EDGE_LOOP('',(#130,#131,#132,#133));
#332=FACE_BOUND('',#290,.T.);
#333=FACE_BOUND('',#291,.T.);
#334=FACE_BOUND('',#292,.T.);
#335=FACE_BOUND('',#293,.T.);
#336=FACE_BOUND('',#294,.T.);
#337=FACE_BOUND('',#295,.T.);
#338=FACE_BOUND('',#296,.T.);
#339=FACE_BOUND('',#297,.T.);
#340=FACE_BOUND('',#298,.T.);
#341=FACE_BOUND('',#299,.T.);
#342=FACE_BOUND('',#300,.T.);
#343=FACE_BOUND('',#301,.T.);
#344=FACE_BOUND('',#302,.T.);
#345=FACE_BOUND('',#303,.T.);
#346=FACE_BOUND('',#304,.T.);
#347=FACE_BOUND('',#305,.T.);
#348=FACE_BOUND('',#306,.T.);
#349=FACE_BOUND('',#307,.T.);
#350=FACE_BOUND('',#308,.T.);
#351=FACE_BOUND('',#309,.T.);
#352=FACE_BOUND('',#310,.T.);
#353=FACE_BOUND('',#311,.T.);
#354=FACE_BOUND('',#312,.T.);
#355=FACE_BOUND('',#313,.T.);
#356=FACE_BOUND('',#314,.T.);
#357=FACE_BOUND('',#315,.T.);
#358=FACE_BOUND('',#316,.T.);
#359=FACE_BOUND('',#317,.T.);
#360=FACE_BOUND('',#318,.T.);
#361=FACE_BOUND('',#319,.T.);
#362=FACE_BOUND('',#320,.T.);
#363=FACE_BOUND('',#321,.T.);
#364=FACE_BOUND('',#322,.T.);
#365=FACE_BOUND('',#323,.T.);
#366=FACE_BOUND('',#324,.T.);
#367=FACE_BOUND('',#325,.T.);
#368=FACE_BOUND('',#326,.T.);
#369=FACE_BOUND('',#327,.T.);
#370=FACE_BOUND('',#328,.T.);
#371=FACE_BOUND('',#329,.T.);
#372=FACE_BOUND('',#330,.T.);
#373=FACE_BOUND('',#331,.T.);
#374=PLANE('',#435);
#375=PLANE('',#436);
#376=PLANE('',#437);
#377=PLANE('',#440);
#378=PLANE('',#441);
#379=PLANE('',#442);
#380=PLANE('',#443);
#381=PLANE('',#446);
#382=PLANE('',#450);
#383=PLANE('',#454);
#384=PLANE('',#458);
#385=PLANE('',#464);
#386=PLANE('',#465);
#387=PLANE('',#466);
#388=PLANE('',#467);
#389=PLANE('',#468);
#390=PLANE('',#469);
#391=PLANE('',#470);
#392=PLANE('',#471);
#393=PLANE('',#472);
#394=PLANE('',#473);
#395=ADVANCED_FACE('',(#332,#333),#374,.T.);
#396=ADVANCED_FACE('',(#334),#375,.T.);
#397=ADVANCED_FACE('',(#335,#336,#337),#376,.T.);
#398=ADVANCED_FACE('',(#338),#377,.T.);
#399=ADVANCED_FACE('',(#339),#378,.T.);
#400=ADVANCED_FACE('',(#340),#379,.F.);
#401=ADVANCED_FACE('',(#341),#380,.T.);
#402=ADVANCED_FACE('',(#342,#343),#20,.T.);
#403=ADVANCED_FACE('',(#344,#345),#381,.F.);
#404=ADVANCED_FACE('',(#346,#347),#21,.T.);
#405=ADVANCED_FACE('',(#348,#349),#382,.F.);
#406=ADVANCED_FACE('',(#350,#351),#22,.T.);
#407=ADVANCED_FACE('',(#352,#353),#383,.F.);
#408=ADVANCED_FACE('',(#354,#355),#23,.T.);
#409=ADVANCED_FACE('',(#356,#357),#384,.F.);
#410=ADVANCED_FACE('',(#358,#359),#24,.T.);
#411=ADVANCED_FACE('',(#360,#361),#25,.T.);
#412=ADVANCED_FACE('',(#362),#385,.F.);
#413=ADVANCED_FACE('',(#363),#386,.F.);
#414=ADVANCED_FACE('',(#364),#387,.F.);
#415=ADVANCED_FACE('',(#365),#388,.F.);
#416=ADVANCED_FACE('',(#366,#367,#368),#389,.F.);
#417=ADVANCED_FACE('',(#369),#390,.T.);
#418=ADVANCED_FACE('',(#370),#391,.T.);
#419=ADVANCED_FACE('',(#371),#392,.T.);
#420=ADVANCED_FACE('',(#372),#393,.T.);
#421=ADVANCED_FACE('',(#373),#394,.F.);
#422=CLOSED_SHELL('',(#395,#396,#397,#398,#399,#400,#401,#402,#403,#404,
#405,#406,#407,#408,#409,#410,#411,#412,#413,#414,#415,#416,#417,#418,#419,
#420,#421));
#423=STYLED_ITEM('',(#424),#431);
#424=PRESENTATION_STYLE_ASSIGNMENT((#425));
#425=SURFACE_STYLE_USAGE(.BOTH.,#426);
#426=SURFACE_SIDE_STYLE('',(#427));
#427=SURFACE_STYLE_FILL_AREA(#428);
#428=FILL_AREA_STYLE('',(#429));
#429=FILL_AREA_STYLE_COLOUR('',#430);
#430=COLOUR_RGB('',0.645180702209473,0.678915679454803,0.699999988079071);
#431=MANIFOLD_SOLID_BREP('',#422);
#432=SHAPE_DEFINITION_REPRESENTATION(#708,#433);
#433=SHAPE_REPRESENTATION('Part6',(#434),#703);
#434=AXIS2_PLACEMENT_3D('',#590,#474,#475);
#435=AXIS2_PLACEMENT_3D('',#591,#476,#477);
#436=AXIS2_PLACEMENT_3D('',#608,#486,#487);
#437=AXIS2_PLACEMENT_3D('',#617,#492,#493);
#438=AXIS2_PLACEMENT_3D('',#618,#494,#495);
#439=AXIS2_PLACEMENT_3D('',#620,#496,#497);
#440=AXIS2_PLACEMENT_3D('',#627,#501,#502);
#441=AXIS2_PLACEMENT_3D('',#633,#506,#507);
#442=AXIS2_PLACEMENT_3D('',#636,#510,#511);
#443=AXIS2_PLACEMENT_3D('',#637,#512,#513);
#444=AXIS2_PLACEMENT_3D('',#638,#514,#515);
#445=AXIS2_PLACEMENT_3D('',#639,#516,#517);
#446=AXIS2_PLACEMENT_3D('',#641,#518,#519);
#447=AXIS2_PLACEMENT_3D('',#642,#520,#521);
#448=AXIS2_PLACEMENT_3D('',#644,#522,#523);
#449=AXIS2_PLACEMENT_3D('',#645,#524,#525);
#450=AXIS2_PLACEMENT_3D('',#647,#526,#527);
#451=AXIS2_PLACEMENT_3D('',#648,#528,#529);
#452=AXIS2_PLACEMENT_3D('',#650,#530,#531);
#453=AXIS2_PLACEMENT_3D('',#651,#532,#533);
#454=AXIS2_PLACEMENT_3D('',#653,#534,#535);
#455=AXIS2_PLACEMENT_3D('',#654,#536,#537);
#456=AXIS2_PLACEMENT_3D('',#656,#538,#539);
#457=AXIS2_PLACEMENT_3D('',#657,#540,#541);
#458=AXIS2_PLACEMENT_3D('',#659,#542,#543);
#459=AXIS2_PLACEMENT_3D('',#660,#544,#545);
#460=AXIS2_PLACEMENT_3D('',#662,#546,#547);
#461=AXIS2_PLACEMENT_3D('',#663,#548,#549);
#462=AXIS2_PLACEMENT_3D('',#665,#550,#551);
#463=AXIS2_PLACEMENT_3D('',#666,#552,#553);
#464=AXIS2_PLACEMENT_3D('',#668,#554,#555);
#465=AXIS2_PLACEMENT_3D('',#674,#559,#560);
#466=AXIS2_PLACEMENT_3D('',#678,#563,#564);
#467=AXIS2_PLACEMENT_3D('',#682,#567,#568);
#468=AXIS2_PLACEMENT_3D('',#684,#570,#571);
#469=AXIS2_PLACEMENT_3D('',#685,#572,#573);
#470=AXIS2_PLACEMENT_3D('',#691,#577,#578);
#471=AXIS2_PLACEMENT_3D('',#695,#581,#582);
#472=AXIS2_PLACEMENT_3D('',#699,#585,#586);
#473=AXIS2_PLACEMENT_3D('',#701,#588,#589);
#474=DIRECTION('',(0.,0.,1.));
#475=DIRECTION('',(1.,0.,0.));
#476=DIRECTION('',(0.,0.,1.));
#477=DIRECTION('',(1.,0.,0.));
#478=DIRECTION('',(0.,-1.,0.));
#479=DIRECTION('',(1.,0.,0.));
#480=DIRECTION('',(0.,1.,0.));
#481=DIRECTION('',(-1.,0.,0.));
#482=DIRECTION('',(-1.,0.,0.));
#483=DIRECTION('',(0.,1.,0.));
#484=DIRECTION('',(1.,0.,0.));
#485=DIRECTION('',(0.,-1.,0.));
#486=DIRECTION('',(1.,0.,0.));
#487=DIRECTION('',(0.,0.,-1.));
#488=DIRECTION('',(0.,0.,1.));
#489=DIRECTION('',(0.,-1.,0.));
#490=DIRECTION('',(0.,0.,1.));
#491=DIRECTION('',(0.,-1.,0.));
#492=DIRECTION('',(0.,0.,1.));
#493=DIRECTION('',(1.,0.,0.));
#494=DIRECTION('',(0.,0.,1.));
#495=DIRECTION('',(1.,0.,0.));
#496=DIRECTION('',(0.,0.,1.));
#497=DIRECTION('',(1.,0.,0.));
#498=DIRECTION('',(-1.,0.,0.));
#499=DIRECTION('',(-1.,0.,0.));
#500=DIRECTION('',(0.,-1.,0.));
#501=DIRECTION('',(-1.,0.,0.));
#502=DIRECTION('',(0.,0.,1.));
#503=DIRECTION('',(0.,0.,-1.));
#504=DIRECTION('',(0.,0.,-1.));
#505=DIRECTION('',(0.,-1.,0.));
#506=DIRECTION('',(0.,0.,-1.));
#507=DIRECTION('',(-1.,0.,0.));
#508=DIRECTION('',(1.,0.,0.));
#509=DIRECTION('',(1.,0.,0.));
#510=DIRECTION('',(0.,-1.,0.));
#511=DIRECTION('',(0.,0.,-1.));
#512=DIRECTION('',(0.,-1.,0.));
#513=DIRECTION('',(0.,0.,-1.));
#514=DIRECTION('',(0.,0.,-1.));
#515=DIRECTION('',(-1.,0.,0.));
#516=DIRECTION('',(0.,0.,-1.));
#517=DIRECTION('',(1.,0.,0.));
#518=DIRECTION('',(0.,0.,-1.));
#519=DIRECTION('',(-1.,0.,0.));
#520=DIRECTION('',(0.,0.,-1.));
#521=DIRECTION('',(1.,0.,0.));
#522=DIRECTION('',(0.,0.,-1.));
#523=DIRECTION('',(-1.,0.,0.));
#524=DIRECTION('',(0.,0.,-1.));
#525=DIRECTION('',(1.,0.,0.));
#526=DIRECTION('',(0.,0.,-1.));
#527=DIRECTION('',(-1.,0.,0.));
#528=DIRECTION('',(0.,0.,-1.));
#529=DIRECTION('',(1.,0.,0.));
#530=DIRECTION('',(0.,0.,-1.));
#531=DIRECTION('',(-1.,0.,0.));
#532=DIRECTION('',(0.,0.,-1.));
#533=DIRECTION('',(1.,0.,0.));
#534=DIRECTION('',(0.,0.,-1.));
#535=DIRECTION('',(-1.,0.,0.));
#536=DIRECTION('',(0.,0.,-1.));
#537=DIRECTION('',(1.,0.,0.));
#538=DIRECTION('',(0.,0.,-1.));
#539=DIRECTION('',(-1.,0.,0.));
#540=DIRECTION('',(0.,0.,-1.));
#541=DIRECTION('',(1.,0.,0.));
#542=DIRECTION('',(0.,0.,-1.));
#543=DIRECTION('',(-1.,0.,0.));
#544=DIRECTION('',(0.,0.,-1.));
#545=DIRECTION('',(1.,0.,0.));
#546=DIRECTION('',(0.,0.,-1.));
#547=DIRECTION('',(-1.,0.,0.));
#548=DIRECTION('',(0.,0.,-1.));
#549=DIRECTION('',(1.,0.,0.));
#550=DIRECTION('',(0.,0.,-1.));
#551=DIRECTION('',(-1.,0.,0.));
#552=DIRECTION('',(0.,0.,-1.));
#553=DIRECTION('',(1.,0.,0.));
#554=DIRECTION('',(1.,0.,0.));
#555=DIRECTION('',(0.,0.,-1.));
#556=DIRECTION('',(0.,-1.,0.));
#557=DIRECTION('',(0.,0.,-1.));
#558=DIRECTION('',(0.,0.,-1.));
#559=DIRECTION('',(0.,1.,0.));
#560=DIRECTION('',(0.,0.,1.));
#561=DIRECTION('',(1.,0.,0.));
#562=DIRECTION('',(0.,0.,-1.));
#563=DIRECTION('',(-1.,0.,0.));
#564=DIRECTION('',(0.,0.,1.));
#565=DIRECTION('',(0.,1.,0.));
#566=DIRECTION('',(0.,0.,-1.));
#567=DIRECTION('',(0.,-1.,0.));
#568=DIRECTION('',(0.,0.,-1.));
#569=DIRECTION('',(-1.,0.,0.));
#570=DIRECTION('',(0.,0.,1.));
#571=DIRECTION('',(1.,0.,0.));
#572=DIRECTION('',(-1.,0.,0.));
#573=DIRECTION('',(0.,0.,1.));
#574=DIRECTION('',(0.,0.,-1.));
#575=DIRECTION('',(0.,1.,0.));
#576=DIRECTION('',(0.,0.,-1.));
#577=DIRECTION('',(0.,1.,0.));
#578=DIRECTION('',(0.,0.,1.));
#579=DIRECTION('',(1.,0.,0.));
#580=DIRECTION('',(0.,0.,-1.));
#581=DIRECTION('',(1.,0.,0.));
#582=DIRECTION('',(0.,0.,-1.));
#583=DIRECTION('',(0.,-1.,0.));
#584=DIRECTION('',(0.,0.,-1.));
#585=DIRECTION('',(0.,-1.,0.));
#586=DIRECTION('',(0.,0.,-1.));
#587=DIRECTION('',(-1.,0.,0.));
#588=DIRECTION('',(0.,0.,-1.));
#589=DIRECTION('',(-1.,0.,0.));
#590=CARTESIAN_POINT('',(0.,0.,0.));
#591=CARTESIAN_POINT('',(0.,0.,145.));
#592=CARTESIAN_POINT('',(-137.75,40.6684434222008,145.));
#593=CARTESIAN_POINT('',(-137.75,40.6684434222008,145.));
#594=CARTESIAN_POINT('',(-137.75,-24.3315565777992,145.));
#595=CARTESIAN_POINT('',(-137.75,-24.3315565777992,145.));
#596=CARTESIAN_POINT('',(137.75,-24.3315565777992,145.));
#597=CARTESIAN_POINT('',(137.75,-24.3315565777992,145.));
#598=CARTESIAN_POINT('',(137.75,40.6684434222008,145.));
#599=CARTESIAN_POINT('',(137.75,40.6684434222008,145.));
#600=CARTESIAN_POINT('',(125.,-16.8315565777992,145.));
#601=CARTESIAN_POINT('',(125.,-16.8315565777992,145.));
#602=CARTESIAN_POINT('',(-125.,-16.8315565777992,145.));
#603=CARTESIAN_POINT('',(-125.,-16.8315565777992,145.));
#604=CARTESIAN_POINT('',(-125.,33.1684434222008,145.));
#605=CARTESIAN_POINT('',(-125.,33.1684434222008,145.));
#606=CARTESIAN_POINT('',(125.,33.1684434222008,145.));
#607=CARTESIAN_POINT('',(125.,33.1684434222008,145.));
#608=CARTESIAN_POINT('',(118.5,14.5,-68.5));
#609=CARTESIAN_POINT('',(118.5,0.,-68.5));
#610=CARTESIAN_POINT('',(118.5,0.,-68.5));
#611=CARTESIAN_POINT('',(118.5,0.,68.5));
#612=CARTESIAN_POINT('',(118.5,14.5,-68.5));
#613=CARTESIAN_POINT('',(118.5,14.5,-68.5));
#614=CARTESIAN_POINT('',(118.5,14.5,-68.5));
#615=CARTESIAN_POINT('',(118.5,14.5,68.5));
#616=CARTESIAN_POINT('',(118.5,14.5,68.5));
#617=CARTESIAN_POINT('',(118.5,14.5,68.5));
#618=CARTESIAN_POINT('',(90.,7.25,68.5));
#619=CARTESIAN_POINT('',(95.,7.25,68.5));
#620=CARTESIAN_POINT('',(-90.,7.25,68.5));
#621=CARTESIAN_POINT('',(-85.,7.25,68.5));
#622=CARTESIAN_POINT('',(118.5,0.,68.5));
#623=CARTESIAN_POINT('',(-118.5,0.,68.5));
#624=CARTESIAN_POINT('',(118.5,14.5,68.5));
#625=CARTESIAN_POINT('',(-118.5,14.5,68.5));
#626=CARTESIAN_POINT('',(-118.5,14.5,68.5));
#627=CARTESIAN_POINT('',(-118.5,14.5,68.5));
#628=CARTESIAN_POINT('',(-118.5,0.,68.5));
#629=CARTESIAN_POINT('',(-118.5,0.,-68.5));
#630=CARTESIAN_POINT('',(-118.5,14.5,68.5));
#631=CARTESIAN_POINT('',(-118.5,14.5,-68.5));
#632=CARTESIAN_POINT('',(-118.5,14.5,-68.5));
#633=CARTESIAN_POINT('',(-118.5,14.5,-68.5));
#634=CARTESIAN_POINT('',(-118.5,0.,-68.5));
#635=CARTESIAN_POINT('',(-118.5,14.5,-68.5));
#636=CARTESIAN_POINT('',(0.,14.5,0.));
#637=CARTESIAN_POINT('',(0.,0.,0.));
#638=CARTESIAN_POINT('',(-90.,7.25,78.5));
#639=CARTESIAN_POINT('',(-90.,7.25,78.5));
#640=CARTESIAN_POINT('',(-85.,7.25,78.5));
#641=CARTESIAN_POINT('',(-90.,7.25,78.5));
#642=CARTESIAN_POINT('',(-90.,7.25,78.5));
#643=CARTESIAN_POINT('',(-87.,7.25,78.5));
#644=CARTESIAN_POINT('',(90.,7.25,78.5));
#645=CARTESIAN_POINT('',(90.,7.25,78.5));
#646=CARTESIAN_POINT('',(95.,7.25,78.5));
#647=CARTESIAN_POINT('',(90.,7.25,78.5));
#648=CARTESIAN_POINT('',(90.,7.25,78.5));
#649=CARTESIAN_POINT('',(93.,7.25,78.5));
#650=CARTESIAN_POINT('',(-90.,7.25,83.5));
#651=CARTESIAN_POINT('',(-90.,7.25,83.5));
#652=CARTESIAN_POINT('',(-87.,7.25,83.5));
#653=CARTESIAN_POINT('',(-90.,7.25,83.5));
#654=CARTESIAN_POINT('',(-90.,7.25,83.5));
#655=CARTESIAN_POINT('',(-89.25,7.25,83.5));
#656=CARTESIAN_POINT('',(90.,7.25,83.5));
#657=CARTESIAN_POINT('',(90.,7.25,83.5));
#658=CARTESIAN_POINT('',(93.,7.25,83.5));
#659=CARTESIAN_POINT('',(90.,7.25,83.5));
#660=CARTESIAN_POINT('',(90.,7.25,83.5));
#661=CARTESIAN_POINT('',(90.75,7.25,83.5));
#662=CARTESIAN_POINT('',(-90.,7.25,143.5));
#663=CARTESIAN_POINT('',(-90.,7.25,143.5));
#664=CARTESIAN_POINT('',(-89.25,7.25,143.5));
#665=CARTESIAN_POINT('',(90.,7.25,143.5));
#666=CARTESIAN_POINT('',(90.,7.25,143.5));
#667=CARTESIAN_POINT('',(90.75,7.25,143.5));
#668=CARTESIAN_POINT('',(-137.75,40.6684434222008,145.));
#669=CARTESIAN_POINT('',(-137.75,40.6684434222008,143.5));
#670=CARTESIAN_POINT('',(-137.75,40.6684434222008,143.5));
#671=CARTESIAN_POINT('',(-137.75,-24.3315565777992,143.5));
#672=CARTESIAN_POINT('',(-137.75,-24.3315565777992,145.));
#673=CARTESIAN_POINT('',(-137.75,40.6684434222008,145.));
#674=CARTESIAN_POINT('',(-137.75,-24.3315565777992,145.));
#675=CARTESIAN_POINT('',(-137.75,-24.3315565777992,143.5));
#676=CARTESIAN_POINT('',(137.75,-24.3315565777992,143.5));
#677=CARTESIAN_POINT('',(137.75,-24.3315565777992,145.));
#678=CARTESIAN_POINT('',(137.75,-24.3315565777992,145.));
#679=CARTESIAN_POINT('',(137.75,-24.3315565777992,143.5));
#680=CARTESIAN_POINT('',(137.75,40.6684434222008,143.5));
#681=CARTESIAN_POINT('',(137.75,40.6684434222008,145.));
#682=CARTESIAN_POINT('',(137.75,40.6684434222008,145.));
#683=CARTESIAN_POINT('',(137.75,40.6684434222008,143.5));
#684=CARTESIAN_POINT('',(0.,0.,143.5));
#685=CARTESIAN_POINT('',(-125.,-16.8315565777992,210.));
#686=CARTESIAN_POINT('',(-125.,-16.8315565777992,210.));
#687=CARTESIAN_POINT('',(-125.,-16.8315565777992,210.));
#688=CARTESIAN_POINT('',(-125.,-16.8315565777992,210.));
#689=CARTESIAN_POINT('',(-125.,33.1684434222008,210.));
#690=CARTESIAN_POINT('',(-125.,33.1684434222008,210.));
#691=CARTESIAN_POINT('',(-125.,33.1684434222008,210.));
#692=CARTESIAN_POINT('',(-125.,33.1684434222008,210.));
#693=CARTESIAN_POINT('',(125.,33.1684434222008,210.));
#694=CARTESIAN_POINT('',(125.,33.1684434222008,210.));
#695=CARTESIAN_POINT('',(125.,33.1684434222008,210.));
#696=CARTESIAN_POINT('',(125.,33.1684434222008,210.));
#697=CARTESIAN_POINT('',(125.,-16.8315565777992,210.));
#698=CARTESIAN_POINT('',(125.,-16.8315565777992,210.));
#699=CARTESIAN_POINT('',(125.,-16.8315565777992,210.));
#700=CARTESIAN_POINT('',(125.,-16.8315565777992,210.));
#701=CARTESIAN_POINT('',(0.,0.,210.));
#702=MECHANICAL_DESIGN_GEOMETRIC_PRESENTATION_REPRESENTATION('',(#423),
#703);
#703=(
GEOMETRIC_REPRESENTATION_CONTEXT(3)
GLOBAL_UNCERTAINTY_ASSIGNED_CONTEXT((#704))
GLOBAL_UNIT_ASSIGNED_CONTEXT((#707,#706,#705))
REPRESENTATION_CONTEXT('Part6','TOP_LEVEL_ASSEMBLY_PART')
);
#704=UNCERTAINTY_MEASURE_WITH_UNIT(LENGTH_MEASURE(0.005),#707,
'DISTANCE_ACCURACY_VALUE','Maximum Tolerance applied to model');
#705=(
NAMED_UNIT(*)
SI_UNIT($,.STERADIAN.)
SOLID_ANGLE_UNIT()
);
#706=(
NAMED_UNIT(*)
PLANE_ANGLE_UNIT()
SI_UNIT($,.RADIAN.)
);
#707=(
LENGTH_UNIT()
NAMED_UNIT(*)
SI_UNIT(.MILLI.,.METRE.)
);
#708=PRODUCT_DEFINITION_SHAPE('','',#709);
#709=PRODUCT_DEFINITION('','',#711,#710);
#710=PRODUCT_DEFINITION_CONTEXT('',#717,'design');
#711=PRODUCT_DEFINITION_FORMATION_WITH_SPECIFIED_SOURCE('','',#713,
 .NOT_KNOWN.);
#712=PRODUCT_RELATED_PRODUCT_CATEGORY('','',(#713));
#713=PRODUCT('Part6','Part6','Part6',(#715));
#714=PRODUCT_CATEGORY('','');
#715=PRODUCT_CONTEXT('',#717,'mechanical');
#716=APPLICATION_PROTOCOL_DEFINITION('international standard',
'automotive_design',2010,#717);
#717=APPLICATION_CONTEXT(
'core data for automotive mechanical design processes');
ENDSEC;
END-ISO-10303-21;
