ISO-10303-21;
HEADER;
/* Generated by software containing ST-Developer
 * from STEP Tools, Inc. (www.steptools.com) 
 */
/* OPTION: strings as raw bytes, not using required /X/ escapes */

FILE_DESCRIPTION(
/* description */ ('Unknown'),
/* implementation_level */ '2;1');

FILE_NAME(
/* name */ 'SNP 1520 S LED 230V',
/* time_stamp */ '2018-06-19T07:23:25+02:00',
/* author */ ('Unknown'),
/* organization */ ('Unknown'),
/* preprocessor_version */ 'ST-DEVELOPER v16.7',
/* originating_system */ 'DEX',
/* authorisation */ $);

FILE_SCHEMA (('AUTOMOTIVE_DESIGN {1 0 10303 214 3 1 1}'));
ENDSEC;

DATA;
#10=PROPERTY_DEFINITION_REPRESENTATION(#14,#12);
#11=PROPERTY_DEFINITION_REPRESENTATION(#15,#13);
#12=REPRESENTATION('',(#16),#561);
#13=REPRESENTATION('',(#17),#561);
#14=PROPERTY_DEFINITION('pmi validation property','',#566);
#15=PROPERTY_DEFINITION('pmi validation property','',#566);
#16=VALUE_REPRESENTATION_ITEM('number of annotations',COUNT_MEASURE(0.));
#17=VALUE_REPRESENTATION_ITEM('number of views',COUNT_MEASURE(0.));
#18=SHAPE_REPRESENTATION_RELATIONSHIP('','',#343,#19);
#19=ADVANCED_BREP_SHAPE_REPRESENTATION('',(#341),#561);
#20=CYLINDRICAL_SURFACE('',#353,5.);
#21=CYLINDRICAL_SURFACE('',#357,5.);
#22=CYLINDRICAL_SURFACE('',#361,2.5);
#23=CYLINDRICAL_SURFACE('',#365,2.5);
#24=CYLINDRICAL_SURFACE('',#369,1.25);
#25=CYLINDRICAL_SURFACE('',#371,1.25);
#26=CIRCLE('',#347,5.);
#27=CIRCLE('',#348,5.);
#28=CIRCLE('',#354,5.);
#29=CIRCLE('',#356,2.5);
#30=CIRCLE('',#358,5.);
#31=CIRCLE('',#360,2.5);
#32=CIRCLE('',#362,2.5);
#33=CIRCLE('',#364,1.25);
#34=CIRCLE('',#366,2.5);
#35=CIRCLE('',#368,1.25);
#36=CIRCLE('',#370,1.25);
#37=CIRCLE('',#372,1.25);
#38=ORIENTED_EDGE('',*,*,#110,.F.);
#39=ORIENTED_EDGE('',*,*,#111,.F.);
#40=ORIENTED_EDGE('',*,*,#112,.T.);
#41=ORIENTED_EDGE('',*,*,#113,.T.);
#42=ORIENTED_EDGE('',*,*,#114,.F.);
#43=ORIENTED_EDGE('',*,*,#115,.F.);
#44=ORIENTED_EDGE('',*,*,#116,.F.);
#45=ORIENTED_EDGE('',*,*,#113,.F.);
#46=ORIENTED_EDGE('',*,*,#117,.T.);
#47=ORIENTED_EDGE('',*,*,#118,.T.);
#48=ORIENTED_EDGE('',*,*,#119,.F.);
#49=ORIENTED_EDGE('',*,*,#118,.F.);
#50=ORIENTED_EDGE('',*,*,#120,.T.);
#51=ORIENTED_EDGE('',*,*,#121,.T.);
#52=ORIENTED_EDGE('',*,*,#122,.F.);
#53=ORIENTED_EDGE('',*,*,#121,.F.);
#54=ORIENTED_EDGE('',*,*,#123,.T.);
#55=ORIENTED_EDGE('',*,*,#111,.T.);
#56=ORIENTED_EDGE('',*,*,#112,.F.);
#57=ORIENTED_EDGE('',*,*,#123,.F.);
#58=ORIENTED_EDGE('',*,*,#120,.F.);
#59=ORIENTED_EDGE('',*,*,#117,.F.);
#60=ORIENTED_EDGE('',*,*,#110,.T.);
#61=ORIENTED_EDGE('',*,*,#116,.T.);
#62=ORIENTED_EDGE('',*,*,#119,.T.);
#63=ORIENTED_EDGE('',*,*,#122,.T.);
#64=ORIENTED_EDGE('',*,*,#124,.T.);
#65=ORIENTED_EDGE('',*,*,#115,.T.);
#66=ORIENTED_EDGE('',*,*,#125,.T.);
#67=ORIENTED_EDGE('',*,*,#124,.F.);
#68=ORIENTED_EDGE('',*,*,#126,.T.);
#69=ORIENTED_EDGE('',*,*,#114,.T.);
#70=ORIENTED_EDGE('',*,*,#127,.T.);
#71=ORIENTED_EDGE('',*,*,#126,.F.);
#72=ORIENTED_EDGE('',*,*,#128,.T.);
#73=ORIENTED_EDGE('',*,*,#125,.F.);
#74=ORIENTED_EDGE('',*,*,#129,.T.);
#75=ORIENTED_EDGE('',*,*,#128,.F.);
#76=ORIENTED_EDGE('',*,*,#130,.T.);
#77=ORIENTED_EDGE('',*,*,#127,.F.);
#78=ORIENTED_EDGE('',*,*,#131,.T.);
#79=ORIENTED_EDGE('',*,*,#130,.F.);
#80=ORIENTED_EDGE('',*,*,#132,.T.);
#81=ORIENTED_EDGE('',*,*,#129,.F.);
#82=ORIENTED_EDGE('',*,*,#133,.T.);
#83=ORIENTED_EDGE('',*,*,#131,.F.);
#84=ORIENTED_EDGE('',*,*,#134,.T.);
#85=ORIENTED_EDGE('',*,*,#135,.F.);
#86=ORIENTED_EDGE('',*,*,#136,.F.);
#87=ORIENTED_EDGE('',*,*,#137,.T.);
#88=ORIENTED_EDGE('',*,*,#138,.T.);
#89=ORIENTED_EDGE('',*,*,#139,.F.);
#90=ORIENTED_EDGE('',*,*,#140,.F.);
#91=ORIENTED_EDGE('',*,*,#135,.T.);
#92=ORIENTED_EDGE('',*,*,#141,.T.);
#93=ORIENTED_EDGE('',*,*,#142,.F.);
#94=ORIENTED_EDGE('',*,*,#143,.F.);
#95=ORIENTED_EDGE('',*,*,#139,.T.);
#96=ORIENTED_EDGE('',*,*,#144,.T.);
#97=ORIENTED_EDGE('',*,*,#137,.F.);
#98=ORIENTED_EDGE('',*,*,#145,.F.);
#99=ORIENTED_EDGE('',*,*,#142,.T.);
#100=ORIENTED_EDGE('',*,*,#136,.T.);
#101=ORIENTED_EDGE('',*,*,#140,.T.);
#102=ORIENTED_EDGE('',*,*,#143,.T.);
#103=ORIENTED_EDGE('',*,*,#145,.T.);
#104=ORIENTED_EDGE('',*,*,#132,.F.);
#105=ORIENTED_EDGE('',*,*,#133,.F.);
#106=ORIENTED_EDGE('',*,*,#134,.F.);
#107=ORIENTED_EDGE('',*,*,#144,.F.);
#108=ORIENTED_EDGE('',*,*,#141,.F.);
#109=ORIENTED_EDGE('',*,*,#138,.F.);
#110=EDGE_CURVE('',#146,#147,#174,.T.);
#111=EDGE_CURVE('',#148,#146,#175,.T.);
#112=EDGE_CURVE('',#148,#149,#176,.T.);
#113=EDGE_CURVE('',#149,#147,#177,.T.);
#114=EDGE_CURVE('',#150,#150,#26,.T.);
#115=EDGE_CURVE('',#151,#151,#27,.T.);
#116=EDGE_CURVE('',#147,#152,#178,.T.);
#117=EDGE_CURVE('',#149,#153,#179,.T.);
#118=EDGE_CURVE('',#153,#152,#180,.T.);
#119=EDGE_CURVE('',#152,#154,#181,.T.);
#120=EDGE_CURVE('',#153,#155,#182,.T.);
#121=EDGE_CURVE('',#155,#154,#183,.T.);
#122=EDGE_CURVE('',#154,#146,#184,.T.);
#123=EDGE_CURVE('',#155,#148,#185,.T.);
#124=EDGE_CURVE('',#156,#156,#28,.T.);
#125=EDGE_CURVE('',#157,#157,#29,.T.);
#126=EDGE_CURVE('',#158,#158,#30,.T.);
#127=EDGE_CURVE('',#159,#159,#31,.T.);
#128=EDGE_CURVE('',#160,#160,#32,.T.);
#129=EDGE_CURVE('',#161,#161,#33,.T.);
#130=EDGE_CURVE('',#162,#162,#34,.T.);
#131=EDGE_CURVE('',#163,#163,#35,.T.);
#132=EDGE_CURVE('',#164,#164,#36,.T.);
#133=EDGE_CURVE('',#165,#165,#37,.T.);
#134=EDGE_CURVE('',#166,#167,#186,.T.);
#135=EDGE_CURVE('',#168,#167,#187,.T.);
#136=EDGE_CURVE('',#169,#168,#188,.T.);
#137=EDGE_CURVE('',#169,#166,#189,.T.);
#138=EDGE_CURVE('',#167,#170,#190,.T.);
#139=EDGE_CURVE('',#171,#170,#191,.T.);
#140=EDGE_CURVE('',#168,#171,#192,.T.);
#141=EDGE_CURVE('',#170,#172,#193,.T.);
#142=EDGE_CURVE('',#173,#172,#194,.T.);
#143=EDGE_CURVE('',#171,#173,#195,.T.);
#144=EDGE_CURVE('',#172,#166,#196,.T.);
#145=EDGE_CURVE('',#173,#169,#197,.T.);
#146=VERTEX_POINT('',#476);
#147=VERTEX_POINT('',#477);
#148=VERTEX_POINT('',#479);
#149=VERTEX_POINT('',#481);
#150=VERTEX_POINT('',#485);
#151=VERTEX_POINT('',#487);
#152=VERTEX_POINT('',#489);
#153=VERTEX_POINT('',#491);
#154=VERTEX_POINT('',#495);
#155=VERTEX_POINT('',#497);
#156=VERTEX_POINT('',#506);
#157=VERTEX_POINT('',#509);
#158=VERTEX_POINT('',#512);
#159=VERTEX_POINT('',#515);
#160=VERTEX_POINT('',#518);
#161=VERTEX_POINT('',#521);
#162=VERTEX_POINT('',#524);
#163=VERTEX_POINT('',#527);
#164=VERTEX_POINT('',#530);
#165=VERTEX_POINT('',#533);
#166=VERTEX_POINT('',#536);
#167=VERTEX_POINT('',#537);
#168=VERTEX_POINT('',#539);
#169=VERTEX_POINT('',#541);
#170=VERTEX_POINT('',#545);
#171=VERTEX_POINT('',#547);
#172=VERTEX_POINT('',#551);
#173=VERTEX_POINT('',#553);
#174=LINE('',#475,#198);
#175=LINE('',#478,#199);
#176=LINE('',#480,#200);
#177=LINE('',#482,#201);
#178=LINE('',#488,#202);
#179=LINE('',#490,#203);
#180=LINE('',#492,#204);
#181=LINE('',#494,#205);
#182=LINE('',#496,#206);
#183=LINE('',#498,#207);
#184=LINE('',#500,#208);
#185=LINE('',#501,#209);
#186=LINE('',#535,#210);
#187=LINE('',#538,#211);
#188=LINE('',#540,#212);
#189=LINE('',#542,#213);
#190=LINE('',#544,#214);
#191=LINE('',#546,#215);
#192=LINE('',#548,#216);
#193=LINE('',#550,#217);
#194=LINE('',#552,#218);
#195=LINE('',#554,#219);
#196=LINE('',#556,#220);
#197=LINE('',#557,#221);
#198=VECTOR('',#383,1000.);
#199=VECTOR('',#384,1000.);
#200=VECTOR('',#385,1000.);
#201=VECTOR('',#386,1000.);
#202=VECTOR('',#393,1000.);
#203=VECTOR('',#394,1000.);
#204=VECTOR('',#395,1000.);
#205=VECTOR('',#398,1000.);
#206=VECTOR('',#399,1000.);
#207=VECTOR('',#400,1000.);
#208=VECTOR('',#403,1000.);
#209=VECTOR('',#404,1000.);
#210=VECTOR('',#451,1000.);
#211=VECTOR('',#452,1000.);
#212=VECTOR('',#453,1000.);
#213=VECTOR('',#454,1000.);
#214=VECTOR('',#457,1000.);
#215=VECTOR('',#458,1000.);
#216=VECTOR('',#459,1000.);
#217=VECTOR('',#462,1000.);
#218=VECTOR('',#463,1000.);
#219=VECTOR('',#464,1000.);
#220=VECTOR('',#467,1000.);
#221=VECTOR('',#468,1000.);
#222=EDGE_LOOP('',(#38,#39,#40,#41));
#223=EDGE_LOOP('',(#42));
#224=EDGE_LOOP('',(#43));
#225=EDGE_LOOP('',(#44,#45,#46,#47));
#226=EDGE_LOOP('',(#48,#49,#50,#51));
#227=EDGE_LOOP('',(#52,#53,#54,#55));
#228=EDGE_LOOP('',(#56,#57,#58,#59));
#229=EDGE_LOOP('',(#60,#61,#62,#63));
#230=EDGE_LOOP('',(#64));
#231=EDGE_LOOP('',(#65));
#232=EDGE_LOOP('',(#66));
#233=EDGE_LOOP('',(#67));
#234=EDGE_LOOP('',(#68));
#235=EDGE_LOOP('',(#69));
#236=EDGE_LOOP('',(#70));
#237=EDGE_LOOP('',(#71));
#238=EDGE_LOOP('',(#72));
#239=EDGE_LOOP('',(#73));
#240=EDGE_LOOP('',(#74));
#241=EDGE_LOOP('',(#75));
#242=EDGE_LOOP('',(#76));
#243=EDGE_LOOP('',(#77));
#244=EDGE_LOOP('',(#78));
#245=EDGE_LOOP('',(#79));
#246=EDGE_LOOP('',(#80));
#247=EDGE_LOOP('',(#81));
#248=EDGE_LOOP('',(#82));
#249=EDGE_LOOP('',(#83));
#250=EDGE_LOOP('',(#84,#85,#86,#87));
#251=EDGE_LOOP('',(#88,#89,#90,#91));
#252=EDGE_LOOP('',(#92,#93,#94,#95));
#253=EDGE_LOOP('',(#96,#97,#98,#99));
#254=EDGE_LOOP('',(#100,#101,#102,#103));
#255=EDGE_LOOP('',(#104));
#256=EDGE_LOOP('',(#105));
#257=EDGE_LOOP('',(#106,#107,#108,#109));
#258=FACE_BOUND('',#222,.T.);
#259=FACE_BOUND('',#223,.T.);
#260=FACE_BOUND('',#224,.T.);
#261=FACE_BOUND('',#225,.T.);
#262=FACE_BOUND('',#226,.T.);
#263=FACE_BOUND('',#227,.T.);
#264=FACE_BOUND('',#228,.T.);
#265=FACE_BOUND('',#229,.T.);
#266=FACE_BOUND('',#230,.T.);
#267=FACE_BOUND('',#231,.T.);
#268=FACE_BOUND('',#232,.T.);
#269=FACE_BOUND('',#233,.T.);
#270=FACE_BOUND('',#234,.T.);
#271=FACE_BOUND('',#235,.T.);
#272=FACE_BOUND('',#236,.T.);
#273=FACE_BOUND('',#237,.T.);
#274=FACE_BOUND('',#238,.T.);
#275=FACE_BOUND('',#239,.T.);
#276=FACE_BOUND('',#240,.T.);
#277=FACE_BOUND('',#241,.T.);
#278=FACE_BOUND('',#242,.T.);
#279=FACE_BOUND('',#243,.T.);
#280=FACE_BOUND('',#244,.T.);
#281=FACE_BOUND('',#245,.T.);
#282=FACE_BOUND('',#246,.T.);
#283=FACE_BOUND('',#247,.T.);
#284=FACE_BOUND('',#248,.T.);
#285=FACE_BOUND('',#249,.T.);
#286=FACE_BOUND('',#250,.T.);
#287=FACE_BOUND('',#251,.T.);
#288=FACE_BOUND('',#252,.T.);
#289=FACE_BOUND('',#253,.T.);
#290=FACE_BOUND('',#254,.T.);
#291=FACE_BOUND('',#255,.T.);
#292=FACE_BOUND('',#256,.T.);
#293=FACE_BOUND('',#257,.T.);
#294=PLANE('',#345);
#295=PLANE('',#346);
#296=PLANE('',#349);
#297=PLANE('',#350);
#298=PLANE('',#351);
#299=PLANE('',#352);
#300=PLANE('',#355);
#301=PLANE('',#359);
#302=PLANE('',#363);
#303=PLANE('',#367);
#304=PLANE('',#373);
#305=PLANE('',#374);
#306=PLANE('',#375);
#307=PLANE('',#376);
#308=PLANE('',#377);
#309=PLANE('',#378);
#310=ADVANCED_FACE('',(#258),#294,.T.);
#311=ADVANCED_FACE('',(#259,#260,#261),#295,.T.);
#312=ADVANCED_FACE('',(#262),#296,.T.);
#313=ADVANCED_FACE('',(#263),#297,.T.);
#314=ADVANCED_FACE('',(#264),#298,.F.);
#315=ADVANCED_FACE('',(#265),#299,.T.);
#316=ADVANCED_FACE('',(#266,#267),#20,.T.);
#317=ADVANCED_FACE('',(#268,#269),#300,.F.);
#318=ADVANCED_FACE('',(#270,#271),#21,.T.);
#319=ADVANCED_FACE('',(#272,#273),#301,.F.);
#320=ADVANCED_FACE('',(#274,#275),#22,.T.);
#321=ADVANCED_FACE('',(#276,#277),#302,.F.);
#322=ADVANCED_FACE('',(#278,#279),#23,.T.);
#323=ADVANCED_FACE('',(#280,#281),#303,.F.);
#324=ADVANCED_FACE('',(#282,#283),#24,.T.);
#325=ADVANCED_FACE('',(#284,#285),#25,.T.);
#326=ADVANCED_FACE('',(#286),#304,.F.);
#327=ADVANCED_FACE('',(#287),#305,.F.);
#328=ADVANCED_FACE('',(#288),#306,.F.);
#329=ADVANCED_FACE('',(#289),#307,.F.);
#330=ADVANCED_FACE('',(#290),#308,.T.);
#331=ADVANCED_FACE('',(#291,#292,#293),#309,.F.);
#332=CLOSED_SHELL('',(#310,#311,#312,#313,#314,#315,#316,#317,#318,#319,
#320,#321,#322,#323,#324,#325,#326,#327,#328,#329,#330,#331));
#333=STYLED_ITEM('',(#334),#341);
#334=PRESENTATION_STYLE_ASSIGNMENT((#335));
#335=SURFACE_STYLE_USAGE(.BOTH.,#336);
#336=SURFACE_SIDE_STYLE('',(#337));
#337=SURFACE_STYLE_FILL_AREA(#338);
#338=FILL_AREA_STYLE('',(#339));
#339=FILL_AREA_STYLE_COLOUR('',#340);
#340=COLOUR_RGB('',0.645180702209473,0.678915679454803,0.699999988079071);
#341=MANIFOLD_SOLID_BREP('',#332);
#342=SHAPE_DEFINITION_REPRESENTATION(#566,#343);
#343=SHAPE_REPRESENTATION('Part1',(#344),#561);
#344=AXIS2_PLACEMENT_3D('',#473,#379,#380);
#345=AXIS2_PLACEMENT_3D('',#474,#381,#382);
#346=AXIS2_PLACEMENT_3D('',#483,#387,#388);
#347=AXIS2_PLACEMENT_3D('',#484,#389,#390);
#348=AXIS2_PLACEMENT_3D('',#486,#391,#392);
#349=AXIS2_PLACEMENT_3D('',#493,#396,#397);
#350=AXIS2_PLACEMENT_3D('',#499,#401,#402);
#351=AXIS2_PLACEMENT_3D('',#502,#405,#406);
#352=AXIS2_PLACEMENT_3D('',#503,#407,#408);
#353=AXIS2_PLACEMENT_3D('',#504,#409,#410);
#354=AXIS2_PLACEMENT_3D('',#505,#411,#412);
#355=AXIS2_PLACEMENT_3D('',#507,#413,#414);
#356=AXIS2_PLACEMENT_3D('',#508,#415,#416);
#357=AXIS2_PLACEMENT_3D('',#510,#417,#418);
#358=AXIS2_PLACEMENT_3D('',#511,#419,#420);
#359=AXIS2_PLACEMENT_3D('',#513,#421,#422);
#360=AXIS2_PLACEMENT_3D('',#514,#423,#424);
#361=AXIS2_PLACEMENT_3D('',#516,#425,#426);
#362=AXIS2_PLACEMENT_3D('',#517,#427,#428);
#363=AXIS2_PLACEMENT_3D('',#519,#429,#430);
#364=AXIS2_PLACEMENT_3D('',#520,#431,#432);
#365=AXIS2_PLACEMENT_3D('',#522,#433,#434);
#366=AXIS2_PLACEMENT_3D('',#523,#435,#436);
#367=AXIS2_PLACEMENT_3D('',#525,#437,#438);
#368=AXIS2_PLACEMENT_3D('',#526,#439,#440);
#369=AXIS2_PLACEMENT_3D('',#528,#441,#442);
#370=AXIS2_PLACEMENT_3D('',#529,#443,#444);
#371=AXIS2_PLACEMENT_3D('',#531,#445,#446);
#372=AXIS2_PLACEMENT_3D('',#532,#447,#448);
#373=AXIS2_PLACEMENT_3D('',#534,#449,#450);
#374=AXIS2_PLACEMENT_3D('',#543,#455,#456);
#375=AXIS2_PLACEMENT_3D('',#549,#460,#461);
#376=AXIS2_PLACEMENT_3D('',#555,#465,#466);
#377=AXIS2_PLACEMENT_3D('',#558,#469,#470);
#378=AXIS2_PLACEMENT_3D('',#559,#471,#472);
#379=DIRECTION('',(0.,0.,1.));
#380=DIRECTION('',(1.,0.,0.));
#381=DIRECTION('',(1.,0.,0.));
#382=DIRECTION('',(0.,0.,-1.));
#383=DIRECTION('',(0.,0.,1.));
#384=DIRECTION('',(0.,-1.,0.));
#385=DIRECTION('',(0.,0.,1.));
#386=DIRECTION('',(0.,-1.,0.));
#387=DIRECTION('',(0.,0.,1.));
#388=DIRECTION('',(1.,0.,0.));
#389=DIRECTION('',(0.,0.,1.));
#390=DIRECTION('',(1.,0.,0.));
#391=DIRECTION('',(0.,0.,1.));
#392=DIRECTION('',(1.,0.,0.));
#393=DIRECTION('',(-1.,0.,0.));
#394=DIRECTION('',(-1.,0.,0.));
#395=DIRECTION('',(0.,-1.,0.));
#396=DIRECTION('',(-1.,0.,0.));
#397=DIRECTION('',(0.,0.,1.));
#398=DIRECTION('',(0.,0.,-1.));
#399=DIRECTION('',(0.,0.,-1.));
#400=DIRECTION('',(0.,-1.,0.));
#401=DIRECTION('',(0.,0.,-1.));
#402=DIRECTION('',(-1.,0.,0.));
#403=DIRECTION('',(1.,0.,0.));
#404=DIRECTION('',(1.,0.,0.));
#405=DIRECTION('',(0.,-1.,0.));
#406=DIRECTION('',(0.,0.,-1.));
#407=DIRECTION('',(0.,-1.,0.));
#408=DIRECTION('',(0.,0.,-1.));
#409=DIRECTION('',(0.,0.,-1.));
#410=DIRECTION('',(-1.,0.,0.));
#411=DIRECTION('',(0.,0.,-1.));
#412=DIRECTION('',(1.,0.,0.));
#413=DIRECTION('',(0.,0.,-1.));
#414=DIRECTION('',(-1.,0.,0.));
#415=DIRECTION('',(0.,0.,-1.));
#416=DIRECTION('',(1.,0.,0.));
#417=DIRECTION('',(0.,0.,-1.));
#418=DIRECTION('',(-1.,0.,0.));
#419=DIRECTION('',(0.,0.,-1.));
#420=DIRECTION('',(1.,0.,0.));
#421=DIRECTION('',(0.,0.,-1.));
#422=DIRECTION('',(-1.,0.,0.));
#423=DIRECTION('',(0.,0.,-1.));
#424=DIRECTION('',(1.,0.,0.));
#425=DIRECTION('',(0.,0.,-1.));
#426=DIRECTION('',(-1.,0.,0.));
#427=DIRECTION('',(0.,0.,-1.));
#428=DIRECTION('',(1.,0.,0.));
#429=DIRECTION('',(0.,0.,-1.));
#430=DIRECTION('',(-1.,0.,0.));
#431=DIRECTION('',(0.,0.,-1.));
#432=DIRECTION('',(1.,0.,0.));
#433=DIRECTION('',(0.,0.,-1.));
#434=DIRECTION('',(-1.,0.,0.));
#435=DIRECTION('',(0.,0.,-1.));
#436=DIRECTION('',(1.,0.,0.));
#437=DIRECTION('',(0.,0.,-1.));
#438=DIRECTION('',(-1.,0.,0.));
#439=DIRECTION('',(0.,0.,-1.));
#440=DIRECTION('',(1.,0.,0.));
#441=DIRECTION('',(0.,0.,-1.));
#442=DIRECTION('',(-1.,0.,0.));
#443=DIRECTION('',(0.,0.,-1.));
#444=DIRECTION('',(1.,0.,0.));
#445=DIRECTION('',(0.,0.,-1.));
#446=DIRECTION('',(-1.,0.,0.));
#447=DIRECTION('',(0.,0.,-1.));
#448=DIRECTION('',(1.,0.,0.));
#449=DIRECTION('',(-1.,0.,0.));
#450=DIRECTION('',(0.,0.,1.));
#451=DIRECTION('',(0.,1.,0.));
#452=DIRECTION('',(0.,0.,-1.));
#453=DIRECTION('',(0.,1.,0.));
#454=DIRECTION('',(0.,0.,-1.));
#455=DIRECTION('',(0.,-1.,0.));
#456=DIRECTION('',(0.,0.,-1.));
#457=DIRECTION('',(-1.,0.,0.));
#458=DIRECTION('',(0.,0.,-1.));
#459=DIRECTION('',(-1.,0.,0.));
#460=DIRECTION('',(1.,0.,0.));
#461=DIRECTION('',(0.,0.,-1.));
#462=DIRECTION('',(0.,-1.,0.));
#463=DIRECTION('',(0.,0.,-1.));
#464=DIRECTION('',(0.,-1.,0.));
#465=DIRECTION('',(0.,1.,0.));
#466=DIRECTION('',(0.,0.,1.));
#467=DIRECTION('',(1.,0.,0.));
#468=DIRECTION('',(1.,0.,0.));
#469=DIRECTION('',(0.,0.,1.));
#470=DIRECTION('',(1.,0.,0.));
#471=DIRECTION('',(0.,0.,1.));
#472=DIRECTION('',(1.,0.,0.));
#473=CARTESIAN_POINT('',(0.,0.,0.));
#474=CARTESIAN_POINT('',(118.5,14.5,-68.5));
#475=CARTESIAN_POINT('',(118.5,0.,-68.5));
#476=CARTESIAN_POINT('',(118.5,0.,-68.5));
#477=CARTESIAN_POINT('',(118.5,0.,68.5));
#478=CARTESIAN_POINT('',(118.5,14.5,-68.5));
#479=CARTESIAN_POINT('',(118.5,14.5,-68.5));
#480=CARTESIAN_POINT('',(118.5,14.5,-68.5));
#481=CARTESIAN_POINT('',(118.5,14.5,68.5));
#482=CARTESIAN_POINT('',(118.5,14.5,68.5));
#483=CARTESIAN_POINT('',(118.5,14.5,68.5));
#484=CARTESIAN_POINT('',(90.,7.25,68.5));
#485=CARTESIAN_POINT('',(95.,7.25,68.5));
#486=CARTESIAN_POINT('',(-90.,7.25,68.5));
#487=CARTESIAN_POINT('',(-85.,7.25,68.5));
#488=CARTESIAN_POINT('',(118.5,0.,68.5));
#489=CARTESIAN_POINT('',(-118.5,0.,68.5));
#490=CARTESIAN_POINT('',(118.5,14.5,68.5));
#491=CARTESIAN_POINT('',(-118.5,14.5,68.5));
#492=CARTESIAN_POINT('',(-118.5,14.5,68.5));
#493=CARTESIAN_POINT('',(-118.5,14.5,68.5));
#494=CARTESIAN_POINT('',(-118.5,0.,68.5));
#495=CARTESIAN_POINT('',(-118.5,0.,-68.5));
#496=CARTESIAN_POINT('',(-118.5,14.5,68.5));
#497=CARTESIAN_POINT('',(-118.5,14.5,-68.5));
#498=CARTESIAN_POINT('',(-118.5,14.5,-68.5));
#499=CARTESIAN_POINT('',(-118.5,14.5,-68.5));
#500=CARTESIAN_POINT('',(-118.5,0.,-68.5));
#501=CARTESIAN_POINT('',(-118.5,14.5,-68.5));
#502=CARTESIAN_POINT('',(0.,14.5,0.));
#503=CARTESIAN_POINT('',(0.,0.,0.));
#504=CARTESIAN_POINT('',(-90.,7.25,78.5));
#505=CARTESIAN_POINT('',(-90.,7.25,78.5));
#506=CARTESIAN_POINT('',(-85.,7.25,78.5));
#507=CARTESIAN_POINT('',(-90.,7.25,78.5));
#508=CARTESIAN_POINT('',(-90.,7.25,78.5));
#509=CARTESIAN_POINT('',(-87.5,7.25,78.5));
#510=CARTESIAN_POINT('',(90.,7.25,78.5));
#511=CARTESIAN_POINT('',(90.,7.25,78.5));
#512=CARTESIAN_POINT('',(95.,7.25,78.5));
#513=CARTESIAN_POINT('',(90.,7.25,78.5));
#514=CARTESIAN_POINT('',(90.,7.25,78.5));
#515=CARTESIAN_POINT('',(92.5,7.25,78.5));
#516=CARTESIAN_POINT('',(-90.,7.25,83.5));
#517=CARTESIAN_POINT('',(-90.,7.25,83.5));
#518=CARTESIAN_POINT('',(-87.5,7.25,83.5));
#519=CARTESIAN_POINT('',(-90.,7.25,83.5));
#520=CARTESIAN_POINT('',(-90.,7.25,83.5));
#521=CARTESIAN_POINT('',(-88.75,7.25,83.5));
#522=CARTESIAN_POINT('',(90.,7.25,83.5));
#523=CARTESIAN_POINT('',(90.,7.25,83.5));
#524=CARTESIAN_POINT('',(92.5,7.25,83.5));
#525=CARTESIAN_POINT('',(90.,7.25,83.5));
#526=CARTESIAN_POINT('',(90.,7.25,83.5));
#527=CARTESIAN_POINT('',(91.25,7.25,83.5));
#528=CARTESIAN_POINT('',(-90.,7.25,483.5));
#529=CARTESIAN_POINT('',(-90.,7.25,483.5));
#530=CARTESIAN_POINT('',(-88.75,7.25,483.5));
#531=CARTESIAN_POINT('',(90.,7.25,483.5));
#532=CARTESIAN_POINT('',(90.,7.25,483.5));
#533=CARTESIAN_POINT('',(91.25,7.25,483.5));
#534=CARTESIAN_POINT('',(118.,-19.75,530.));
#535=CARTESIAN_POINT('',(118.,-19.75,483.5));
#536=CARTESIAN_POINT('',(118.,-19.75,483.5));
#537=CARTESIAN_POINT('',(118.,34.25,483.5));
#538=CARTESIAN_POINT('',(118.,34.25,530.));
#539=CARTESIAN_POINT('',(118.,34.25,530.));
#540=CARTESIAN_POINT('',(118.,-19.75,530.));
#541=CARTESIAN_POINT('',(118.,-19.75,530.));
#542=CARTESIAN_POINT('',(118.,-19.75,530.));
#543=CARTESIAN_POINT('',(118.,34.25,530.));
#544=CARTESIAN_POINT('',(118.,34.25,483.5));
#545=CARTESIAN_POINT('',(-118.,34.25,483.5));
#546=CARTESIAN_POINT('',(-118.,34.25,530.));
#547=CARTESIAN_POINT('',(-118.,34.25,530.));
#548=CARTESIAN_POINT('',(118.,34.25,530.));
#549=CARTESIAN_POINT('',(-118.,34.25,530.));
#550=CARTESIAN_POINT('',(-118.,34.25,483.5));
#551=CARTESIAN_POINT('',(-118.,-19.75,483.5));
#552=CARTESIAN_POINT('',(-118.,-19.75,530.));
#553=CARTESIAN_POINT('',(-118.,-19.75,530.));
#554=CARTESIAN_POINT('',(-118.,34.25,530.));
#555=CARTESIAN_POINT('',(-118.,-19.75,530.));
#556=CARTESIAN_POINT('',(-118.,-19.75,483.5));
#557=CARTESIAN_POINT('',(-118.,-19.75,530.));
#558=CARTESIAN_POINT('',(0.,0.,530.));
#559=CARTESIAN_POINT('',(0.,0.,483.5));
#560=MECHANICAL_DESIGN_GEOMETRIC_PRESENTATION_REPRESENTATION('',(#333),
#561);
#561=(
GEOMETRIC_REPRESENTATION_CONTEXT(3)
GLOBAL_UNCERTAINTY_ASSIGNED_CONTEXT((#562))
GLOBAL_UNIT_ASSIGNED_CONTEXT((#565,#564,#563))
REPRESENTATION_CONTEXT('Part1','TOP_LEVEL_ASSEMBLY_PART')
);
#562=UNCERTAINTY_MEASURE_WITH_UNIT(LENGTH_MEASURE(0.005),#565,
'DISTANCE_ACCURACY_VALUE','Maximum Tolerance applied to model');
#563=(
NAMED_UNIT(*)
SI_UNIT($,.STERADIAN.)
SOLID_ANGLE_UNIT()
);
#564=(
NAMED_UNIT(*)
PLANE_ANGLE_UNIT()
SI_UNIT($,.RADIAN.)
);
#565=(
LENGTH_UNIT()
NAMED_UNIT(*)
SI_UNIT(.MILLI.,.METRE.)
);
#566=PRODUCT_DEFINITION_SHAPE('','',#567);
#567=PRODUCT_DEFINITION('','',#569,#568);
#568=PRODUCT_DEFINITION_CONTEXT('',#575,'design');
#569=PRODUCT_DEFINITION_FORMATION_WITH_SPECIFIED_SOURCE('','',#571,
 .NOT_KNOWN.);
#570=PRODUCT_RELATED_PRODUCT_CATEGORY('','',(#571));
#571=PRODUCT('Part1','Part1','Part1',(#573));
#572=PRODUCT_CATEGORY('','');
#573=PRODUCT_CONTEXT('',#575,'mechanical');
#574=APPLICATION_PROTOCOL_DEFINITION('international standard',
'automotive_design',2010,#575);
#575=APPLICATION_CONTEXT(
'core data for automotive mechanical design processes');
ENDSEC;
END-ISO-10303-21;
