ISO-10303-21;
HEADER;
/* Generated by software containing ST-Developer
 * from STEP Tools, Inc. (www.steptools.com) 
 */
/* OPTION: strings as raw bytes, not using required /X/ escapes */

FILE_DESCRIPTION(
/* description */ ('Unknown'),
/* implementation_level */ '2;1');

FILE_NAME(
/* name */ 'SNP 1530 ES LED 230V',
/* time_stamp */ '2018-04-27T10:47:16+02:00',
/* author */ ('Unknown'),
/* organization */ ('Unknown'),
/* preprocessor_version */ 'ST-DEVELOPER v16.7',
/* originating_system */ 'DEX',
/* authorisation */ $);

FILE_SCHEMA (('AUTOMOTIVE_DESIGN {1 0 10303 214 3 1 1}'));
ENDSEC;

DATA;
#10=PROPERTY_DEFINITION_REPRESENTATION(#14,#12);
#11=PROPERTY_DEFINITION_REPRESENTATION(#15,#13);
#12=REPRESENTATION('',(#16),#703);
#13=REPRESENTATION('',(#17),#703);
#14=PROPERTY_DEFINITION('pmi validation property','',#708);
#15=PROPERTY_DEFINITION('pmi validation property','',#708);
#16=VALUE_REPRESENTATION_ITEM('number of annotations',COUNT_MEASURE(0.));
#17=VALUE_REPRESENTATION_ITEM('number of views',COUNT_MEASURE(0.));
#18=SHAPE_REPRESENTATION_RELATIONSHIP('','',#433,#19);
#19=ADVANCED_BREP_SHAPE_REPRESENTATION('',(#431),#703);
#20=CYLINDRICAL_SURFACE('',#443,5.);
#21=CYLINDRICAL_SURFACE('',#447,5.);
#22=CYLINDRICAL_SURFACE('',#451,3.);
#23=CYLINDRICAL_SURFACE('',#455,3.);
#24=CYLINDRICAL_SURFACE('',#459,0.750000000000001);
#25=CYLINDRICAL_SURFACE('',#461,0.750000000000001);
#26=CIRCLE('',#437,5.);
#27=CIRCLE('',#438,5.);
#28=CIRCLE('',#444,5.);
#29=CIRCLE('',#446,3.);
#30=CIRCLE('',#448,5.);
#31=CIRCLE('',#450,3.);
#32=CIRCLE('',#452,3.);
#33=CIRCLE('',#454,0.750000000000001);
#34=CIRCLE('',#456,3.);
#35=CIRCLE('',#458,0.750000000000001);
#36=CIRCLE('',#460,0.750000000000001);
#37=CIRCLE('',#462,0.750000000000001);
#38=ORIENTED_EDGE('',*,*,#134,.F.);
#39=ORIENTED_EDGE('',*,*,#135,.F.);
#40=ORIENTED_EDGE('',*,*,#136,.T.);
#41=ORIENTED_EDGE('',*,*,#137,.T.);
#42=ORIENTED_EDGE('',*,*,#138,.F.);
#43=ORIENTED_EDGE('',*,*,#139,.F.);
#44=ORIENTED_EDGE('',*,*,#140,.F.);
#45=ORIENTED_EDGE('',*,*,#137,.F.);
#46=ORIENTED_EDGE('',*,*,#141,.T.);
#47=ORIENTED_EDGE('',*,*,#142,.T.);
#48=ORIENTED_EDGE('',*,*,#143,.F.);
#49=ORIENTED_EDGE('',*,*,#142,.F.);
#50=ORIENTED_EDGE('',*,*,#144,.T.);
#51=ORIENTED_EDGE('',*,*,#145,.T.);
#52=ORIENTED_EDGE('',*,*,#146,.F.);
#53=ORIENTED_EDGE('',*,*,#145,.F.);
#54=ORIENTED_EDGE('',*,*,#147,.T.);
#55=ORIENTED_EDGE('',*,*,#135,.T.);
#56=ORIENTED_EDGE('',*,*,#136,.F.);
#57=ORIENTED_EDGE('',*,*,#147,.F.);
#58=ORIENTED_EDGE('',*,*,#144,.F.);
#59=ORIENTED_EDGE('',*,*,#141,.F.);
#60=ORIENTED_EDGE('',*,*,#134,.T.);
#61=ORIENTED_EDGE('',*,*,#140,.T.);
#62=ORIENTED_EDGE('',*,*,#143,.T.);
#63=ORIENTED_EDGE('',*,*,#146,.T.);
#64=ORIENTED_EDGE('',*,*,#148,.T.);
#65=ORIENTED_EDGE('',*,*,#139,.T.);
#66=ORIENTED_EDGE('',*,*,#149,.T.);
#67=ORIENTED_EDGE('',*,*,#148,.F.);
#68=ORIENTED_EDGE('',*,*,#150,.T.);
#69=ORIENTED_EDGE('',*,*,#138,.T.);
#70=ORIENTED_EDGE('',*,*,#151,.T.);
#71=ORIENTED_EDGE('',*,*,#150,.F.);
#72=ORIENTED_EDGE('',*,*,#152,.T.);
#73=ORIENTED_EDGE('',*,*,#149,.F.);
#74=ORIENTED_EDGE('',*,*,#153,.T.);
#75=ORIENTED_EDGE('',*,*,#152,.F.);
#76=ORIENTED_EDGE('',*,*,#154,.T.);
#77=ORIENTED_EDGE('',*,*,#151,.F.);
#78=ORIENTED_EDGE('',*,*,#155,.T.);
#79=ORIENTED_EDGE('',*,*,#154,.F.);
#80=ORIENTED_EDGE('',*,*,#156,.T.);
#81=ORIENTED_EDGE('',*,*,#153,.F.);
#82=ORIENTED_EDGE('',*,*,#157,.T.);
#83=ORIENTED_EDGE('',*,*,#155,.F.);
#84=ORIENTED_EDGE('',*,*,#158,.F.);
#85=ORIENTED_EDGE('',*,*,#159,.F.);
#86=ORIENTED_EDGE('',*,*,#160,.T.);
#87=ORIENTED_EDGE('',*,*,#161,.T.);
#88=ORIENTED_EDGE('',*,*,#162,.F.);
#89=ORIENTED_EDGE('',*,*,#161,.F.);
#90=ORIENTED_EDGE('',*,*,#163,.T.);
#91=ORIENTED_EDGE('',*,*,#164,.T.);
#92=ORIENTED_EDGE('',*,*,#165,.F.);
#93=ORIENTED_EDGE('',*,*,#164,.F.);
#94=ORIENTED_EDGE('',*,*,#166,.T.);
#95=ORIENTED_EDGE('',*,*,#167,.T.);
#96=ORIENTED_EDGE('',*,*,#168,.F.);
#97=ORIENTED_EDGE('',*,*,#167,.F.);
#98=ORIENTED_EDGE('',*,*,#169,.T.);
#99=ORIENTED_EDGE('',*,*,#159,.T.);
#100=ORIENTED_EDGE('',*,*,#170,.T.);
#101=ORIENTED_EDGE('',*,*,#171,.T.);
#102=ORIENTED_EDGE('',*,*,#172,.T.);
#103=ORIENTED_EDGE('',*,*,#173,.T.);
#104=ORIENTED_EDGE('',*,*,#160,.F.);
#105=ORIENTED_EDGE('',*,*,#169,.F.);
#106=ORIENTED_EDGE('',*,*,#166,.F.);
#107=ORIENTED_EDGE('',*,*,#163,.F.);
#108=ORIENTED_EDGE('',*,*,#156,.F.);
#109=ORIENTED_EDGE('',*,*,#157,.F.);
#110=ORIENTED_EDGE('',*,*,#158,.T.);
#111=ORIENTED_EDGE('',*,*,#162,.T.);
#112=ORIENTED_EDGE('',*,*,#165,.T.);
#113=ORIENTED_EDGE('',*,*,#168,.T.);
#114=ORIENTED_EDGE('',*,*,#171,.F.);
#115=ORIENTED_EDGE('',*,*,#174,.F.);
#116=ORIENTED_EDGE('',*,*,#175,.T.);
#117=ORIENTED_EDGE('',*,*,#176,.T.);
#118=ORIENTED_EDGE('',*,*,#172,.F.);
#119=ORIENTED_EDGE('',*,*,#176,.F.);
#120=ORIENTED_EDGE('',*,*,#177,.T.);
#121=ORIENTED_EDGE('',*,*,#178,.T.);
#122=ORIENTED_EDGE('',*,*,#173,.F.);
#123=ORIENTED_EDGE('',*,*,#178,.F.);
#124=ORIENTED_EDGE('',*,*,#179,.T.);
#125=ORIENTED_EDGE('',*,*,#180,.T.);
#126=ORIENTED_EDGE('',*,*,#170,.F.);
#127=ORIENTED_EDGE('',*,*,#180,.F.);
#128=ORIENTED_EDGE('',*,*,#181,.T.);
#129=ORIENTED_EDGE('',*,*,#174,.T.);
#130=ORIENTED_EDGE('',*,*,#175,.F.);
#131=ORIENTED_EDGE('',*,*,#181,.F.);
#132=ORIENTED_EDGE('',*,*,#179,.F.);
#133=ORIENTED_EDGE('',*,*,#177,.F.);
#134=EDGE_CURVE('',#182,#183,#218,.T.);
#135=EDGE_CURVE('',#184,#182,#219,.T.);
#136=EDGE_CURVE('',#184,#185,#220,.T.);
#137=EDGE_CURVE('',#185,#183,#221,.T.);
#138=EDGE_CURVE('',#186,#186,#26,.T.);
#139=EDGE_CURVE('',#187,#187,#27,.T.);
#140=EDGE_CURVE('',#183,#188,#222,.T.);
#141=EDGE_CURVE('',#185,#189,#223,.T.);
#142=EDGE_CURVE('',#189,#188,#224,.T.);
#143=EDGE_CURVE('',#188,#190,#225,.T.);
#144=EDGE_CURVE('',#189,#191,#226,.T.);
#145=EDGE_CURVE('',#191,#190,#227,.T.);
#146=EDGE_CURVE('',#190,#182,#228,.T.);
#147=EDGE_CURVE('',#191,#184,#229,.T.);
#148=EDGE_CURVE('',#192,#192,#28,.T.);
#149=EDGE_CURVE('',#193,#193,#29,.T.);
#150=EDGE_CURVE('',#194,#194,#30,.T.);
#151=EDGE_CURVE('',#195,#195,#31,.T.);
#152=EDGE_CURVE('',#196,#196,#32,.T.);
#153=EDGE_CURVE('',#197,#197,#33,.T.);
#154=EDGE_CURVE('',#198,#198,#34,.T.);
#155=EDGE_CURVE('',#199,#199,#35,.T.);
#156=EDGE_CURVE('',#200,#200,#36,.T.);
#157=EDGE_CURVE('',#201,#201,#37,.T.);
#158=EDGE_CURVE('',#202,#203,#230,.T.);
#159=EDGE_CURVE('',#204,#202,#231,.T.);
#160=EDGE_CURVE('',#204,#205,#232,.T.);
#161=EDGE_CURVE('',#205,#203,#233,.T.);
#162=EDGE_CURVE('',#203,#206,#234,.T.);
#163=EDGE_CURVE('',#205,#207,#235,.T.);
#164=EDGE_CURVE('',#207,#206,#236,.T.);
#165=EDGE_CURVE('',#206,#208,#237,.T.);
#166=EDGE_CURVE('',#207,#209,#238,.T.);
#167=EDGE_CURVE('',#209,#208,#239,.T.);
#168=EDGE_CURVE('',#208,#202,#240,.T.);
#169=EDGE_CURVE('',#209,#204,#241,.T.);
#170=EDGE_CURVE('',#210,#211,#242,.T.);
#171=EDGE_CURVE('',#211,#212,#243,.T.);
#172=EDGE_CURVE('',#212,#213,#244,.T.);
#173=EDGE_CURVE('',#213,#210,#245,.T.);
#174=EDGE_CURVE('',#214,#211,#246,.T.);
#175=EDGE_CURVE('',#214,#215,#247,.T.);
#176=EDGE_CURVE('',#215,#212,#248,.T.);
#177=EDGE_CURVE('',#215,#216,#249,.T.);
#178=EDGE_CURVE('',#216,#213,#250,.T.);
#179=EDGE_CURVE('',#216,#217,#251,.T.);
#180=EDGE_CURVE('',#217,#210,#252,.T.);
#181=EDGE_CURVE('',#217,#214,#253,.T.);
#182=VERTEX_POINT('',#593);
#183=VERTEX_POINT('',#594);
#184=VERTEX_POINT('',#596);
#185=VERTEX_POINT('',#598);
#186=VERTEX_POINT('',#602);
#187=VERTEX_POINT('',#604);
#188=VERTEX_POINT('',#606);
#189=VERTEX_POINT('',#608);
#190=VERTEX_POINT('',#612);
#191=VERTEX_POINT('',#614);
#192=VERTEX_POINT('',#623);
#193=VERTEX_POINT('',#626);
#194=VERTEX_POINT('',#629);
#195=VERTEX_POINT('',#632);
#196=VERTEX_POINT('',#635);
#197=VERTEX_POINT('',#638);
#198=VERTEX_POINT('',#641);
#199=VERTEX_POINT('',#644);
#200=VERTEX_POINT('',#647);
#201=VERTEX_POINT('',#650);
#202=VERTEX_POINT('',#653);
#203=VERTEX_POINT('',#654);
#204=VERTEX_POINT('',#656);
#205=VERTEX_POINT('',#658);
#206=VERTEX_POINT('',#662);
#207=VERTEX_POINT('',#664);
#208=VERTEX_POINT('',#668);
#209=VERTEX_POINT('',#670);
#210=VERTEX_POINT('',#677);
#211=VERTEX_POINT('',#678);
#212=VERTEX_POINT('',#680);
#213=VERTEX_POINT('',#682);
#214=VERTEX_POINT('',#687);
#215=VERTEX_POINT('',#689);
#216=VERTEX_POINT('',#693);
#217=VERTEX_POINT('',#697);
#218=LINE('',#592,#254);
#219=LINE('',#595,#255);
#220=LINE('',#597,#256);
#221=LINE('',#599,#257);
#222=LINE('',#605,#258);
#223=LINE('',#607,#259);
#224=LINE('',#609,#260);
#225=LINE('',#611,#261);
#226=LINE('',#613,#262);
#227=LINE('',#615,#263);
#228=LINE('',#617,#264);
#229=LINE('',#618,#265);
#230=LINE('',#652,#266);
#231=LINE('',#655,#267);
#232=LINE('',#657,#268);
#233=LINE('',#659,#269);
#234=LINE('',#661,#270);
#235=LINE('',#663,#271);
#236=LINE('',#665,#272);
#237=LINE('',#667,#273);
#238=LINE('',#669,#274);
#239=LINE('',#671,#275);
#240=LINE('',#673,#276);
#241=LINE('',#674,#277);
#242=LINE('',#676,#278);
#243=LINE('',#679,#279);
#244=LINE('',#681,#280);
#245=LINE('',#683,#281);
#246=LINE('',#686,#282);
#247=LINE('',#688,#283);
#248=LINE('',#690,#284);
#249=LINE('',#692,#285);
#250=LINE('',#694,#286);
#251=LINE('',#696,#287);
#252=LINE('',#698,#288);
#253=LINE('',#700,#289);
#254=VECTOR('',#478,1000.);
#255=VECTOR('',#479,1000.);
#256=VECTOR('',#480,1000.);
#257=VECTOR('',#481,1000.);
#258=VECTOR('',#488,1000.);
#259=VECTOR('',#489,1000.);
#260=VECTOR('',#490,1000.);
#261=VECTOR('',#493,1000.);
#262=VECTOR('',#494,1000.);
#263=VECTOR('',#495,1000.);
#264=VECTOR('',#498,1000.);
#265=VECTOR('',#499,1000.);
#266=VECTOR('',#546,1000.);
#267=VECTOR('',#547,1000.);
#268=VECTOR('',#548,1000.);
#269=VECTOR('',#549,1000.);
#270=VECTOR('',#552,1000.);
#271=VECTOR('',#553,1000.);
#272=VECTOR('',#554,1000.);
#273=VECTOR('',#557,1000.);
#274=VECTOR('',#558,1000.);
#275=VECTOR('',#559,1000.);
#276=VECTOR('',#562,1000.);
#277=VECTOR('',#563,1000.);
#278=VECTOR('',#566,1000.);
#279=VECTOR('',#567,1000.);
#280=VECTOR('',#568,1000.);
#281=VECTOR('',#569,1000.);
#282=VECTOR('',#574,1000.);
#283=VECTOR('',#575,1000.);
#284=VECTOR('',#576,1000.);
#285=VECTOR('',#579,1000.);
#286=VECTOR('',#580,1000.);
#287=VECTOR('',#583,1000.);
#288=VECTOR('',#584,1000.);
#289=VECTOR('',#587,1000.);
#290=EDGE_LOOP('',(#38,#39,#40,#41));
#291=EDGE_LOOP('',(#42));
#292=EDGE_LOOP('',(#43));
#293=EDGE_LOOP('',(#44,#45,#46,#47));
#294=EDGE_LOOP('',(#48,#49,#50,#51));
#295=EDGE_LOOP('',(#52,#53,#54,#55));
#296=EDGE_LOOP('',(#56,#57,#58,#59));
#297=EDGE_LOOP('',(#60,#61,#62,#63));
#298=EDGE_LOOP('',(#64));
#299=EDGE_LOOP('',(#65));
#300=EDGE_LOOP('',(#66));
#301=EDGE_LOOP('',(#67));
#302=EDGE_LOOP('',(#68));
#303=EDGE_LOOP('',(#69));
#304=EDGE_LOOP('',(#70));
#305=EDGE_LOOP('',(#71));
#306=EDGE_LOOP('',(#72));
#307=EDGE_LOOP('',(#73));
#308=EDGE_LOOP('',(#74));
#309=EDGE_LOOP('',(#75));
#310=EDGE_LOOP('',(#76));
#311=EDGE_LOOP('',(#77));
#312=EDGE_LOOP('',(#78));
#313=EDGE_LOOP('',(#79));
#314=EDGE_LOOP('',(#80));
#315=EDGE_LOOP('',(#81));
#316=EDGE_LOOP('',(#82));
#317=EDGE_LOOP('',(#83));
#318=EDGE_LOOP('',(#84,#85,#86,#87));
#319=EDGE_LOOP('',(#88,#89,#90,#91));
#320=EDGE_LOOP('',(#92,#93,#94,#95));
#321=EDGE_LOOP('',(#96,#97,#98,#99));
#322=EDGE_LOOP('',(#100,#101,#102,#103));
#323=EDGE_LOOP('',(#104,#105,#106,#107));
#324=EDGE_LOOP('',(#108));
#325=EDGE_LOOP('',(#109));
#326=EDGE_LOOP('',(#110,#111,#112,#113));
#327=EDGE_LOOP('',(#114,#115,#116,#117));
#328=EDGE_LOOP('',(#118,#119,#120,#121));
#329=EDGE_LOOP('',(#122,#123,#124,#125));
#330=EDGE_LOOP('',(#126,#127,#128,#129));
#331=EDGE_LOOP('',(#130,#131,#132,#133));
#332=FACE_BOUND('',#290,.T.);
#333=FACE_BOUND('',#291,.T.);
#334=FACE_BOUND('',#292,.T.);
#335=FACE_BOUND('',#293,.T.);
#336=FACE_BOUND('',#294,.T.);
#337=FACE_BOUND('',#295,.T.);
#338=FACE_BOUND('',#296,.T.);
#339=FACE_BOUND('',#297,.T.);
#340=FACE_BOUND('',#298,.T.);
#341=FACE_BOUND('',#299,.T.);
#342=FACE_BOUND('',#300,.T.);
#343=FACE_BOUND('',#301,.T.);
#344=FACE_BOUND('',#302,.T.);
#345=FACE_BOUND('',#303,.T.);
#346=FACE_BOUND('',#304,.T.);
#347=FACE_BOUND('',#305,.T.);
#348=FACE_BOUND('',#306,.T.);
#349=FACE_BOUND('',#307,.T.);
#350=FACE_BOUND('',#308,.T.);
#351=FACE_BOUND('',#309,.T.);
#352=FACE_BOUND('',#310,.T.);
#353=FACE_BOUND('',#311,.T.);
#354=FACE_BOUND('',#312,.T.);
#355=FACE_BOUND('',#313,.T.);
#356=FACE_BOUND('',#314,.T.);
#357=FACE_BOUND('',#315,.T.);
#358=FACE_BOUND('',#316,.T.);
#359=FACE_BOUND('',#317,.T.);
#360=FACE_BOUND('',#318,.T.);
#361=FACE_BOUND('',#319,.T.);
#362=FACE_BOUND('',#320,.T.);
#363=FACE_BOUND('',#321,.T.);
#364=FACE_BOUND('',#322,.T.);
#365=FACE_BOUND('',#323,.T.);
#366=FACE_BOUND('',#324,.T.);
#367=FACE_BOUND('',#325,.T.);
#368=FACE_BOUND('',#326,.T.);
#369=FACE_BOUND('',#327,.T.);
#370=FACE_BOUND('',#328,.T.);
#371=FACE_BOUND('',#329,.T.);
#372=FACE_BOUND('',#330,.T.);
#373=FACE_BOUND('',#331,.T.);
#374=PLANE('',#435);
#375=PLANE('',#436);
#376=PLANE('',#439);
#377=PLANE('',#440);
#378=PLANE('',#441);
#379=PLANE('',#442);
#380=PLANE('',#445);
#381=PLANE('',#449);
#382=PLANE('',#453);
#383=PLANE('',#457);
#384=PLANE('',#463);
#385=PLANE('',#464);
#386=PLANE('',#465);
#387=PLANE('',#466);
#388=PLANE('',#467);
#389=PLANE('',#468);
#390=PLANE('',#469);
#391=PLANE('',#470);
#392=PLANE('',#471);
#393=PLANE('',#472);
#394=PLANE('',#473);
#395=ADVANCED_FACE('',(#332),#374,.T.);
#396=ADVANCED_FACE('',(#333,#334,#335),#375,.T.);
#397=ADVANCED_FACE('',(#336),#376,.T.);
#398=ADVANCED_FACE('',(#337),#377,.T.);
#399=ADVANCED_FACE('',(#338),#378,.F.);
#400=ADVANCED_FACE('',(#339),#379,.T.);
#401=ADVANCED_FACE('',(#340,#341),#20,.T.);
#402=ADVANCED_FACE('',(#342,#343),#380,.F.);
#403=ADVANCED_FACE('',(#344,#345),#21,.T.);
#404=ADVANCED_FACE('',(#346,#347),#381,.F.);
#405=ADVANCED_FACE('',(#348,#349),#22,.T.);
#406=ADVANCED_FACE('',(#350,#351),#382,.F.);
#407=ADVANCED_FACE('',(#352,#353),#23,.T.);
#408=ADVANCED_FACE('',(#354,#355),#383,.F.);
#409=ADVANCED_FACE('',(#356,#357),#24,.T.);
#410=ADVANCED_FACE('',(#358,#359),#25,.T.);
#411=ADVANCED_FACE('',(#360),#384,.T.);
#412=ADVANCED_FACE('',(#361),#385,.T.);
#413=ADVANCED_FACE('',(#362),#386,.T.);
#414=ADVANCED_FACE('',(#363),#387,.T.);
#415=ADVANCED_FACE('',(#364,#365),#388,.F.);
#416=ADVANCED_FACE('',(#366,#367,#368),#389,.T.);
#417=ADVANCED_FACE('',(#369),#390,.T.);
#418=ADVANCED_FACE('',(#370),#391,.T.);
#419=ADVANCED_FACE('',(#371),#392,.T.);
#420=ADVANCED_FACE('',(#372),#393,.T.);
#421=ADVANCED_FACE('',(#373),#394,.F.);
#422=CLOSED_SHELL('',(#395,#396,#397,#398,#399,#400,#401,#402,#403,#404,
#405,#406,#407,#408,#409,#410,#411,#412,#413,#414,#415,#416,#417,#418,#419,
#420,#421));
#423=STYLED_ITEM('',(#424),#431);
#424=PRESENTATION_STYLE_ASSIGNMENT((#425));
#425=SURFACE_STYLE_USAGE(.BOTH.,#426);
#426=SURFACE_SIDE_STYLE('',(#427));
#427=SURFACE_STYLE_FILL_AREA(#428);
#428=FILL_AREA_STYLE('',(#429));
#429=FILL_AREA_STYLE_COLOUR('',#430);
#430=COLOUR_RGB('',0.645180702209473,0.678915679454803,0.699999988079071);
#431=MANIFOLD_SOLID_BREP('',#422);
#432=SHAPE_DEFINITION_REPRESENTATION(#708,#433);
#433=SHAPE_REPRESENTATION('Part10',(#434),#703);
#434=AXIS2_PLACEMENT_3D('',#590,#474,#475);
#435=AXIS2_PLACEMENT_3D('',#591,#476,#477);
#436=AXIS2_PLACEMENT_3D('',#600,#482,#483);
#437=AXIS2_PLACEMENT_3D('',#601,#484,#485);
#438=AXIS2_PLACEMENT_3D('',#603,#486,#487);
#439=AXIS2_PLACEMENT_3D('',#610,#491,#492);
#440=AXIS2_PLACEMENT_3D('',#616,#496,#497);
#441=AXIS2_PLACEMENT_3D('',#619,#500,#501);
#442=AXIS2_PLACEMENT_3D('',#620,#502,#503);
#443=AXIS2_PLACEMENT_3D('',#621,#504,#505);
#444=AXIS2_PLACEMENT_3D('',#622,#506,#507);
#445=AXIS2_PLACEMENT_3D('',#624,#508,#509);
#446=AXIS2_PLACEMENT_3D('',#625,#510,#511);
#447=AXIS2_PLACEMENT_3D('',#627,#512,#513);
#448=AXIS2_PLACEMENT_3D('',#628,#514,#515);
#449=AXIS2_PLACEMENT_3D('',#630,#516,#517);
#450=AXIS2_PLACEMENT_3D('',#631,#518,#519);
#451=AXIS2_PLACEMENT_3D('',#633,#520,#521);
#452=AXIS2_PLACEMENT_3D('',#634,#522,#523);
#453=AXIS2_PLACEMENT_3D('',#636,#524,#525);
#454=AXIS2_PLACEMENT_3D('',#637,#526,#527);
#455=AXIS2_PLACEMENT_3D('',#639,#528,#529);
#456=AXIS2_PLACEMENT_3D('',#640,#530,#531);
#457=AXIS2_PLACEMENT_3D('',#642,#532,#533);
#458=AXIS2_PLACEMENT_3D('',#643,#534,#535);
#459=AXIS2_PLACEMENT_3D('',#645,#536,#537);
#460=AXIS2_PLACEMENT_3D('',#646,#538,#539);
#461=AXIS2_PLACEMENT_3D('',#648,#540,#541);
#462=AXIS2_PLACEMENT_3D('',#649,#542,#543);
#463=AXIS2_PLACEMENT_3D('',#651,#544,#545);
#464=AXIS2_PLACEMENT_3D('',#660,#550,#551);
#465=AXIS2_PLACEMENT_3D('',#666,#555,#556);
#466=AXIS2_PLACEMENT_3D('',#672,#560,#561);
#467=AXIS2_PLACEMENT_3D('',#675,#564,#565);
#468=AXIS2_PLACEMENT_3D('',#684,#570,#571);
#469=AXIS2_PLACEMENT_3D('',#685,#572,#573);
#470=AXIS2_PLACEMENT_3D('',#691,#577,#578);
#471=AXIS2_PLACEMENT_3D('',#695,#581,#582);
#472=AXIS2_PLACEMENT_3D('',#699,#585,#586);
#473=AXIS2_PLACEMENT_3D('',#701,#588,#589);
#474=DIRECTION('',(0.,0.,1.));
#475=DIRECTION('',(1.,0.,0.));
#476=DIRECTION('',(1.,0.,0.));
#477=DIRECTION('',(0.,0.,-1.));
#478=DIRECTION('',(0.,0.,1.));
#479=DIRECTION('',(0.,-1.,0.));
#480=DIRECTION('',(0.,0.,1.));
#481=DIRECTION('',(0.,-1.,0.));
#482=DIRECTION('',(0.,0.,1.));
#483=DIRECTION('',(1.,0.,0.));
#484=DIRECTION('',(0.,0.,1.));
#485=DIRECTION('',(1.,0.,0.));
#486=DIRECTION('',(0.,0.,1.));
#487=DIRECTION('',(1.,0.,0.));
#488=DIRECTION('',(-1.,0.,0.));
#489=DIRECTION('',(-1.,0.,0.));
#490=DIRECTION('',(0.,-1.,0.));
#491=DIRECTION('',(-1.,0.,0.));
#492=DIRECTION('',(0.,0.,1.));
#493=DIRECTION('',(0.,0.,-1.));
#494=DIRECTION('',(0.,0.,-1.));
#495=DIRECTION('',(0.,-1.,0.));
#496=DIRECTION('',(0.,0.,-1.));
#497=DIRECTION('',(-1.,0.,0.));
#498=DIRECTION('',(1.,0.,0.));
#499=DIRECTION('',(1.,0.,0.));
#500=DIRECTION('',(0.,-1.,0.));
#501=DIRECTION('',(0.,0.,-1.));
#502=DIRECTION('',(0.,-1.,0.));
#503=DIRECTION('',(0.,0.,-1.));
#504=DIRECTION('',(0.,0.,-1.));
#505=DIRECTION('',(-1.,0.,0.));
#506=DIRECTION('',(0.,0.,-1.));
#507=DIRECTION('',(1.,0.,0.));
#508=DIRECTION('',(0.,0.,-1.));
#509=DIRECTION('',(-1.,0.,0.));
#510=DIRECTION('',(0.,0.,-1.));
#511=DIRECTION('',(1.,0.,0.));
#512=DIRECTION('',(0.,0.,-1.));
#513=DIRECTION('',(-1.,0.,0.));
#514=DIRECTION('',(0.,0.,-1.));
#515=DIRECTION('',(1.,0.,0.));
#516=DIRECTION('',(0.,0.,-1.));
#517=DIRECTION('',(-1.,0.,0.));
#518=DIRECTION('',(0.,0.,-1.));
#519=DIRECTION('',(1.,0.,0.));
#520=DIRECTION('',(0.,0.,-1.));
#521=DIRECTION('',(-1.,0.,0.));
#522=DIRECTION('',(0.,0.,-1.));
#523=DIRECTION('',(1.,0.,0.));
#524=DIRECTION('',(0.,0.,-1.));
#525=DIRECTION('',(-1.,0.,0.));
#526=DIRECTION('',(0.,0.,-1.));
#527=DIRECTION('',(1.,0.,0.));
#528=DIRECTION('',(0.,0.,-1.));
#529=DIRECTION('',(-1.,0.,0.));
#530=DIRECTION('',(0.,0.,-1.));
#531=DIRECTION('',(1.,0.,0.));
#532=DIRECTION('',(0.,0.,-1.));
#533=DIRECTION('',(-1.,0.,0.));
#534=DIRECTION('',(0.,0.,-1.));
#535=DIRECTION('',(1.,0.,0.));
#536=DIRECTION('',(0.,0.,-1.));
#537=DIRECTION('',(-1.,0.,0.));
#538=DIRECTION('',(0.,0.,-1.));
#539=DIRECTION('',(1.,0.,0.));
#540=DIRECTION('',(0.,0.,-1.));
#541=DIRECTION('',(-1.,0.,0.));
#542=DIRECTION('',(0.,0.,-1.));
#543=DIRECTION('',(1.,0.,0.));
#544=DIRECTION('',(-1.,4.2700885562506E-16,0.));
#545=DIRECTION('',(-4.2700885562506E-16,-1.,0.));
#546=DIRECTION('',(4.2700885562506E-16,1.,0.));
#547=DIRECTION('',(0.,0.,-1.));
#548=DIRECTION('',(4.2700885562506E-16,1.,0.));
#549=DIRECTION('',(0.,0.,-1.));
#550=DIRECTION('',(0.,1.,0.));
#551=DIRECTION('',(0.,0.,1.));
#552=DIRECTION('',(1.,0.,0.));
#553=DIRECTION('',(1.,0.,0.));
#554=DIRECTION('',(0.,0.,-1.));
#555=DIRECTION('',(1.,1.70803542250024E-15,0.));
#556=DIRECTION('',(-1.70803542250024E-15,1.,0.));
#557=DIRECTION('',(1.70803542250024E-15,-1.,0.));
#558=DIRECTION('',(1.70803542250024E-15,-1.,0.));
#559=DIRECTION('',(0.,0.,-1.));
#560=DIRECTION('',(0.,-1.,0.));
#561=DIRECTION('',(0.,0.,-1.));
#562=DIRECTION('',(-1.,0.,0.));
#563=DIRECTION('',(-1.,0.,0.));
#564=DIRECTION('',(0.,0.,-1.));
#565=DIRECTION('',(-1.,0.,0.));
#566=DIRECTION('',(0.,-1.,0.));
#567=DIRECTION('',(-1.,0.,0.));
#568=DIRECTION('',(0.,1.,0.));
#569=DIRECTION('',(1.,0.,0.));
#570=DIRECTION('',(0.,0.,-1.));
#571=DIRECTION('',(-1.,0.,0.));
#572=DIRECTION('',(0.,-1.,0.));
#573=DIRECTION('',(0.,0.,-1.));
#574=DIRECTION('',(0.,0.,-1.));
#575=DIRECTION('',(-1.,0.,0.));
#576=DIRECTION('',(0.,0.,-1.));
#577=DIRECTION('',(-1.,0.,0.));
#578=DIRECTION('',(0.,0.,1.));
#579=DIRECTION('',(0.,1.,0.));
#580=DIRECTION('',(0.,0.,-1.));
#581=DIRECTION('',(0.,1.,0.));
#582=DIRECTION('',(0.,0.,1.));
#583=DIRECTION('',(1.,0.,0.));
#584=DIRECTION('',(0.,0.,-1.));
#585=DIRECTION('',(1.,0.,0.));
#586=DIRECTION('',(0.,0.,-1.));
#587=DIRECTION('',(0.,-1.,0.));
#588=DIRECTION('',(0.,0.,-1.));
#589=DIRECTION('',(-1.,0.,0.));
#590=CARTESIAN_POINT('',(0.,0.,0.));
#591=CARTESIAN_POINT('',(168.5,14.5,-93.5));
#592=CARTESIAN_POINT('',(168.5,0.,-93.5));
#593=CARTESIAN_POINT('',(168.5,0.,-93.5));
#594=CARTESIAN_POINT('',(168.5,0.,93.5));
#595=CARTESIAN_POINT('',(168.5,14.5,-93.5));
#596=CARTESIAN_POINT('',(168.5,14.5,-93.5));
#597=CARTESIAN_POINT('',(168.5,14.5,-93.5));
#598=CARTESIAN_POINT('',(168.5,14.5,93.5));
#599=CARTESIAN_POINT('',(168.5,14.5,93.5));
#600=CARTESIAN_POINT('',(168.5,14.5,93.5));
#601=CARTESIAN_POINT('',(140.,7.25,93.5));
#602=CARTESIAN_POINT('',(145.,7.25,93.5));
#603=CARTESIAN_POINT('',(-140.,7.25,93.5));
#604=CARTESIAN_POINT('',(-135.,7.25,93.5));
#605=CARTESIAN_POINT('',(168.5,0.,93.5));
#606=CARTESIAN_POINT('',(-168.5,0.,93.5));
#607=CARTESIAN_POINT('',(168.5,14.5,93.5));
#608=CARTESIAN_POINT('',(-168.5,14.5,93.5));
#609=CARTESIAN_POINT('',(-168.5,14.5,93.5));
#610=CARTESIAN_POINT('',(-168.5,14.5,93.5));
#611=CARTESIAN_POINT('',(-168.5,0.,93.5));
#612=CARTESIAN_POINT('',(-168.5,0.,-93.5));
#613=CARTESIAN_POINT('',(-168.5,14.5,93.5));
#614=CARTESIAN_POINT('',(-168.5,14.5,-93.5));
#615=CARTESIAN_POINT('',(-168.5,14.5,-93.5));
#616=CARTESIAN_POINT('',(-168.5,14.5,-93.5));
#617=CARTESIAN_POINT('',(-168.5,0.,-93.5));
#618=CARTESIAN_POINT('',(-168.5,14.5,-93.5));
#619=CARTESIAN_POINT('',(0.,14.5,0.));
#620=CARTESIAN_POINT('',(0.,0.,0.));
#621=CARTESIAN_POINT('',(-140.,7.25,108.5));
#622=CARTESIAN_POINT('',(-140.,7.25,108.5));
#623=CARTESIAN_POINT('',(-135.,7.25,108.5));
#624=CARTESIAN_POINT('',(-140.,7.25,108.5));
#625=CARTESIAN_POINT('',(-140.,7.25,108.5));
#626=CARTESIAN_POINT('',(-137.,7.25,108.5));
#627=CARTESIAN_POINT('',(140.,7.25,108.5));
#628=CARTESIAN_POINT('',(140.,7.25,108.5));
#629=CARTESIAN_POINT('',(145.,7.25,108.5));
#630=CARTESIAN_POINT('',(140.,7.25,108.5));
#631=CARTESIAN_POINT('',(140.,7.25,108.5));
#632=CARTESIAN_POINT('',(143.,7.25,108.5));
#633=CARTESIAN_POINT('',(-140.,7.25,116.5));
#634=CARTESIAN_POINT('',(-140.,7.25,116.5));
#635=CARTESIAN_POINT('',(-137.,7.25,116.5));
#636=CARTESIAN_POINT('',(-140.,7.25,116.5));
#637=CARTESIAN_POINT('',(-140.,7.25,116.5));
#638=CARTESIAN_POINT('',(-139.25,7.25,116.5));
#639=CARTESIAN_POINT('',(140.,7.25,116.5));
#640=CARTESIAN_POINT('',(140.,7.25,116.5));
#641=CARTESIAN_POINT('',(143.,7.25,116.5));
#642=CARTESIAN_POINT('',(140.,7.25,116.5));
#643=CARTESIAN_POINT('',(140.,7.25,116.5));
#644=CARTESIAN_POINT('',(140.75,7.25,116.5));
#645=CARTESIAN_POINT('',(-140.,7.25,186.5));
#646=CARTESIAN_POINT('',(-140.,7.25,186.5));
#647=CARTESIAN_POINT('',(-139.25,7.25,186.5));
#648=CARTESIAN_POINT('',(140.,7.25,186.5));
#649=CARTESIAN_POINT('',(140.,7.25,186.5));
#650=CARTESIAN_POINT('',(140.75,7.25,186.5));
#651=CARTESIAN_POINT('',(-187.75,-25.25,188.));
#652=CARTESIAN_POINT('',(-187.75,-25.25,186.5));
#653=CARTESIAN_POINT('',(-187.75,-25.25,186.5));
#654=CARTESIAN_POINT('',(-187.75,39.75,186.5));
#655=CARTESIAN_POINT('',(-187.75,-25.25,188.));
#656=CARTESIAN_POINT('',(-187.75,-25.25,188.));
#657=CARTESIAN_POINT('',(-187.75,-25.25,188.));
#658=CARTESIAN_POINT('',(-187.75,39.75,188.));
#659=CARTESIAN_POINT('',(-187.75,39.75,188.));
#660=CARTESIAN_POINT('',(-187.75,39.75,188.));
#661=CARTESIAN_POINT('',(-187.75,39.75,186.5));
#662=CARTESIAN_POINT('',(187.75,39.75,186.5));
#663=CARTESIAN_POINT('',(-187.75,39.75,188.));
#664=CARTESIAN_POINT('',(187.75,39.75,188.));
#665=CARTESIAN_POINT('',(187.75,39.75,188.));
#666=CARTESIAN_POINT('',(187.75,39.75,188.));
#667=CARTESIAN_POINT('',(187.75,39.75,186.5));
#668=CARTESIAN_POINT('',(187.75,-25.2500000000001,186.5));
#669=CARTESIAN_POINT('',(187.75,39.75,188.));
#670=CARTESIAN_POINT('',(187.75,-25.2500000000001,188.));
#671=CARTESIAN_POINT('',(187.75,-25.2500000000001,188.));
#672=CARTESIAN_POINT('',(187.75,-25.25,188.));
#673=CARTESIAN_POINT('',(187.75,-25.25,186.5));
#674=CARTESIAN_POINT('',(187.75,-25.25,188.));
#675=CARTESIAN_POINT('',(0.,0.,188.));
#676=CARTESIAN_POINT('',(150.,32.25,188.));
#677=CARTESIAN_POINT('',(150.,32.25,188.));
#678=CARTESIAN_POINT('',(150.,-17.7500000000001,188.));
#679=CARTESIAN_POINT('',(150.,-17.7500000000001,188.));
#680=CARTESIAN_POINT('',(-150.,-17.7500000000001,188.));
#681=CARTESIAN_POINT('',(-150.,-17.7500000000001,188.));
#682=CARTESIAN_POINT('',(-150.,32.25,188.));
#683=CARTESIAN_POINT('',(-150.,32.25,188.));
#684=CARTESIAN_POINT('',(0.,0.,186.5));
#685=CARTESIAN_POINT('',(150.,-17.7500000000001,253.));
#686=CARTESIAN_POINT('',(150.,-17.7500000000001,253.));
#687=CARTESIAN_POINT('',(150.,-17.7500000000001,253.));
#688=CARTESIAN_POINT('',(150.,-17.7500000000001,253.));
#689=CARTESIAN_POINT('',(-150.,-17.7500000000001,253.));
#690=CARTESIAN_POINT('',(-150.,-17.7500000000001,253.));
#691=CARTESIAN_POINT('',(-150.,-17.7500000000001,253.));
#692=CARTESIAN_POINT('',(-150.,-17.7500000000001,253.));
#693=CARTESIAN_POINT('',(-150.,32.25,253.));
#694=CARTESIAN_POINT('',(-150.,32.25,253.));
#695=CARTESIAN_POINT('',(-150.,32.25,253.));
#696=CARTESIAN_POINT('',(-150.,32.25,253.));
#697=CARTESIAN_POINT('',(150.,32.25,253.));
#698=CARTESIAN_POINT('',(150.,32.25,253.));
#699=CARTESIAN_POINT('',(150.,32.25,253.));
#700=CARTESIAN_POINT('',(150.,32.25,253.));
#701=CARTESIAN_POINT('',(0.,0.,253.));
#702=MECHANICAL_DESIGN_GEOMETRIC_PRESENTATION_REPRESENTATION('',(#423),
#703);
#703=(
GEOMETRIC_REPRESENTATION_CONTEXT(3)
GLOBAL_UNCERTAINTY_ASSIGNED_CONTEXT((#704))
GLOBAL_UNIT_ASSIGNED_CONTEXT((#707,#706,#705))
REPRESENTATION_CONTEXT('Part10','TOP_LEVEL_ASSEMBLY_PART')
);
#704=UNCERTAINTY_MEASURE_WITH_UNIT(LENGTH_MEASURE(0.005),#707,
'DISTANCE_ACCURACY_VALUE','Maximum Tolerance applied to model');
#705=(
NAMED_UNIT(*)
SI_UNIT($,.STERADIAN.)
SOLID_ANGLE_UNIT()
);
#706=(
NAMED_UNIT(*)
PLANE_ANGLE_UNIT()
SI_UNIT($,.RADIAN.)
);
#707=(
LENGTH_UNIT()
NAMED_UNIT(*)
SI_UNIT(.MILLI.,.METRE.)
);
#708=PRODUCT_DEFINITION_SHAPE('','',#709);
#709=PRODUCT_DEFINITION('','',#711,#710);
#710=PRODUCT_DEFINITION_CONTEXT('',#717,'design');
#711=PRODUCT_DEFINITION_FORMATION_WITH_SPECIFIED_SOURCE('','',#713,
 .NOT_KNOWN.);
#712=PRODUCT_RELATED_PRODUCT_CATEGORY('','',(#713));
#713=PRODUCT('Part10','Part10','Part10',(#715));
#714=PRODUCT_CATEGORY('','');
#715=PRODUCT_CONTEXT('',#717,'mechanical');
#716=APPLICATION_PROTOCOL_DEFINITION('international standard',
'automotive_design',2010,#717);
#717=APPLICATION_CONTEXT(
'core data for automotive mechanical design processes');
ENDSEC;
END-ISO-10303-21;
