ISO-10303-21;
HEADER;
/* Generated by software containing ST-Developer
 * from STEP Tools, Inc. (www.steptools.com) 
 */
/* OPTION: strings as raw bytes, not using required /X/ escapes */

FILE_DESCRIPTION(
/* description */ ('Unknown'),
/* implementation_level */ '2;1');

FILE_NAME(
/* name */ 'SNP 2420 LED 230V',
/* time_stamp */ '2018-09-24T13:53:02+02:00',
/* author */ ('Unknown'),
/* organization */ ('Unknown'),
/* preprocessor_version */ 'ST-DEVELOPER v16.7',
/* originating_system */ 'DEX',
/* authorisation */ $);

FILE_SCHEMA (('AUTOMOTIVE_DESIGN {1 0 10303 214 3 1 1}'));
ENDSEC;

DATA;
#10=PROPERTY_DEFINITION_REPRESENTATION(#14,#12);
#11=PROPERTY_DEFINITION_REPRESENTATION(#15,#13);
#12=REPRESENTATION('',(#16),#459);
#13=REPRESENTATION('',(#17),#459);
#14=PROPERTY_DEFINITION('pmi validation property','',#464);
#15=PROPERTY_DEFINITION('pmi validation property','',#464);
#16=VALUE_REPRESENTATION_ITEM('number of annotations',COUNT_MEASURE(0.));
#17=VALUE_REPRESENTATION_ITEM('number of views',COUNT_MEASURE(0.));
#18=SHAPE_REPRESENTATION_RELATIONSHIP('','',#297,#19);
#19=ADVANCED_BREP_SHAPE_REPRESENTATION('',(#295),#459);
#20=ORIENTED_EDGE('',*,*,#92,.T.);
#21=ORIENTED_EDGE('',*,*,#93,.F.);
#22=ORIENTED_EDGE('',*,*,#94,.F.);
#23=ORIENTED_EDGE('',*,*,#95,.T.);
#24=ORIENTED_EDGE('',*,*,#96,.T.);
#25=ORIENTED_EDGE('',*,*,#97,.F.);
#26=ORIENTED_EDGE('',*,*,#98,.F.);
#27=ORIENTED_EDGE('',*,*,#93,.T.);
#28=ORIENTED_EDGE('',*,*,#99,.T.);
#29=ORIENTED_EDGE('',*,*,#100,.F.);
#30=ORIENTED_EDGE('',*,*,#101,.F.);
#31=ORIENTED_EDGE('',*,*,#97,.T.);
#32=ORIENTED_EDGE('',*,*,#102,.T.);
#33=ORIENTED_EDGE('',*,*,#95,.F.);
#34=ORIENTED_EDGE('',*,*,#103,.F.);
#35=ORIENTED_EDGE('',*,*,#100,.T.);
#36=ORIENTED_EDGE('',*,*,#104,.F.);
#37=ORIENTED_EDGE('',*,*,#105,.T.);
#38=ORIENTED_EDGE('',*,*,#106,.F.);
#39=ORIENTED_EDGE('',*,*,#107,.T.);
#40=ORIENTED_EDGE('',*,*,#108,.F.);
#41=ORIENTED_EDGE('',*,*,#109,.T.);
#42=ORIENTED_EDGE('',*,*,#110,.F.);
#43=ORIENTED_EDGE('',*,*,#111,.T.);
#44=ORIENTED_EDGE('',*,*,#94,.T.);
#45=ORIENTED_EDGE('',*,*,#98,.T.);
#46=ORIENTED_EDGE('',*,*,#101,.T.);
#47=ORIENTED_EDGE('',*,*,#103,.T.);
#48=ORIENTED_EDGE('',*,*,#92,.F.);
#49=ORIENTED_EDGE('',*,*,#102,.F.);
#50=ORIENTED_EDGE('',*,*,#99,.F.);
#51=ORIENTED_EDGE('',*,*,#96,.F.);
#52=ORIENTED_EDGE('',*,*,#112,.F.);
#53=ORIENTED_EDGE('',*,*,#113,.T.);
#54=ORIENTED_EDGE('',*,*,#104,.T.);
#55=ORIENTED_EDGE('',*,*,#114,.T.);
#56=ORIENTED_EDGE('',*,*,#115,.F.);
#57=ORIENTED_EDGE('',*,*,#116,.T.);
#58=ORIENTED_EDGE('',*,*,#110,.T.);
#59=ORIENTED_EDGE('',*,*,#117,.T.);
#60=ORIENTED_EDGE('',*,*,#108,.T.);
#61=ORIENTED_EDGE('',*,*,#118,.T.);
#62=ORIENTED_EDGE('',*,*,#119,.F.);
#63=ORIENTED_EDGE('',*,*,#120,.T.);
#64=ORIENTED_EDGE('',*,*,#106,.T.);
#65=ORIENTED_EDGE('',*,*,#121,.T.);
#66=ORIENTED_EDGE('',*,*,#122,.F.);
#67=ORIENTED_EDGE('',*,*,#123,.T.);
#68=ORIENTED_EDGE('',*,*,#122,.T.);
#69=ORIENTED_EDGE('',*,*,#124,.T.);
#70=ORIENTED_EDGE('',*,*,#112,.T.);
#71=ORIENTED_EDGE('',*,*,#125,.T.);
#72=ORIENTED_EDGE('',*,*,#115,.T.);
#73=ORIENTED_EDGE('',*,*,#126,.T.);
#74=ORIENTED_EDGE('',*,*,#119,.T.);
#75=ORIENTED_EDGE('',*,*,#127,.T.);
#76=ORIENTED_EDGE('',*,*,#124,.F.);
#77=ORIENTED_EDGE('',*,*,#121,.F.);
#78=ORIENTED_EDGE('',*,*,#105,.F.);
#79=ORIENTED_EDGE('',*,*,#113,.F.);
#80=ORIENTED_EDGE('',*,*,#125,.F.);
#81=ORIENTED_EDGE('',*,*,#114,.F.);
#82=ORIENTED_EDGE('',*,*,#111,.F.);
#83=ORIENTED_EDGE('',*,*,#116,.F.);
#84=ORIENTED_EDGE('',*,*,#127,.F.);
#85=ORIENTED_EDGE('',*,*,#118,.F.);
#86=ORIENTED_EDGE('',*,*,#107,.F.);
#87=ORIENTED_EDGE('',*,*,#123,.F.);
#88=ORIENTED_EDGE('',*,*,#126,.F.);
#89=ORIENTED_EDGE('',*,*,#117,.F.);
#90=ORIENTED_EDGE('',*,*,#109,.F.);
#91=ORIENTED_EDGE('',*,*,#120,.F.);
#92=EDGE_CURVE('',#128,#129,#152,.T.);
#93=EDGE_CURVE('',#130,#129,#153,.T.);
#94=EDGE_CURVE('',#131,#130,#154,.T.);
#95=EDGE_CURVE('',#131,#128,#155,.T.);
#96=EDGE_CURVE('',#129,#132,#156,.T.);
#97=EDGE_CURVE('',#133,#132,#157,.T.);
#98=EDGE_CURVE('',#130,#133,#158,.T.);
#99=EDGE_CURVE('',#132,#134,#159,.T.);
#100=EDGE_CURVE('',#135,#134,#160,.T.);
#101=EDGE_CURVE('',#133,#135,#161,.T.);
#102=EDGE_CURVE('',#134,#128,#162,.T.);
#103=EDGE_CURVE('',#135,#131,#163,.T.);
#104=EDGE_CURVE('',#136,#137,#164,.T.);
#105=EDGE_CURVE('',#136,#138,#165,.F.);
#106=EDGE_CURVE('',#139,#138,#166,.T.);
#107=EDGE_CURVE('',#139,#140,#167,.F.);
#108=EDGE_CURVE('',#141,#140,#168,.T.);
#109=EDGE_CURVE('',#141,#142,#169,.F.);
#110=EDGE_CURVE('',#143,#142,#170,.T.);
#111=EDGE_CURVE('',#143,#137,#171,.F.);
#112=EDGE_CURVE('',#144,#145,#172,.T.);
#113=EDGE_CURVE('',#144,#136,#173,.T.);
#114=EDGE_CURVE('',#137,#145,#174,.T.);
#115=EDGE_CURVE('',#146,#147,#175,.T.);
#116=EDGE_CURVE('',#146,#143,#176,.T.);
#117=EDGE_CURVE('',#142,#147,#177,.T.);
#118=EDGE_CURVE('',#140,#148,#178,.T.);
#119=EDGE_CURVE('',#149,#148,#179,.T.);
#120=EDGE_CURVE('',#149,#141,#180,.T.);
#121=EDGE_CURVE('',#138,#150,#181,.T.);
#122=EDGE_CURVE('',#151,#150,#182,.T.);
#123=EDGE_CURVE('',#151,#139,#183,.T.);
#124=EDGE_CURVE('',#150,#144,#184,.F.);
#125=EDGE_CURVE('',#145,#146,#185,.F.);
#126=EDGE_CURVE('',#147,#149,#186,.F.);
#127=EDGE_CURVE('',#148,#151,#187,.F.);
#128=VERTEX_POINT('',#385);
#129=VERTEX_POINT('',#386);
#130=VERTEX_POINT('',#388);
#131=VERTEX_POINT('',#390);
#132=VERTEX_POINT('',#394);
#133=VERTEX_POINT('',#396);
#134=VERTEX_POINT('',#400);
#135=VERTEX_POINT('',#402);
#136=VERTEX_POINT('',#409);
#137=VERTEX_POINT('',#410);
#138=VERTEX_POINT('',#412);
#139=VERTEX_POINT('',#414);
#140=VERTEX_POINT('',#416);
#141=VERTEX_POINT('',#418);
#142=VERTEX_POINT('',#420);
#143=VERTEX_POINT('',#422);
#144=VERTEX_POINT('',#427);
#145=VERTEX_POINT('',#428);
#146=VERTEX_POINT('',#433);
#147=VERTEX_POINT('',#434);
#148=VERTEX_POINT('',#439);
#149=VERTEX_POINT('',#441);
#150=VERTEX_POINT('',#445);
#151=VERTEX_POINT('',#447);
#152=LINE('',#384,#188);
#153=LINE('',#387,#189);
#154=LINE('',#389,#190);
#155=LINE('',#391,#191);
#156=LINE('',#393,#192);
#157=LINE('',#395,#193);
#158=LINE('',#397,#194);
#159=LINE('',#399,#195);
#160=LINE('',#401,#196);
#161=LINE('',#403,#197);
#162=LINE('',#405,#198);
#163=LINE('',#406,#199);
#164=LINE('',#408,#200);
#165=LINE('',#411,#201);
#166=LINE('',#413,#202);
#167=LINE('',#415,#203);
#168=LINE('',#417,#204);
#169=LINE('',#419,#205);
#170=LINE('',#421,#206);
#171=LINE('',#423,#207);
#172=LINE('',#426,#208);
#173=LINE('',#429,#209);
#174=LINE('',#430,#210);
#175=LINE('',#432,#211);
#176=LINE('',#435,#212);
#177=LINE('',#436,#213);
#178=LINE('',#438,#214);
#179=LINE('',#440,#215);
#180=LINE('',#442,#216);
#181=LINE('',#444,#217);
#182=LINE('',#446,#218);
#183=LINE('',#448,#219);
#184=LINE('',#450,#220);
#185=LINE('',#451,#221);
#186=LINE('',#452,#222);
#187=LINE('',#453,#223);
#188=VECTOR('',#318,1000.);
#189=VECTOR('',#319,1000.);
#190=VECTOR('',#320,1000.);
#191=VECTOR('',#321,1000.);
#192=VECTOR('',#324,1000.);
#193=VECTOR('',#325,1000.);
#194=VECTOR('',#326,1000.);
#195=VECTOR('',#329,1000.);
#196=VECTOR('',#330,1000.);
#197=VECTOR('',#331,1000.);
#198=VECTOR('',#334,1000.);
#199=VECTOR('',#335,1000.);
#200=VECTOR('',#338,1000.);
#201=VECTOR('',#339,1000.);
#202=VECTOR('',#340,1000.);
#203=VECTOR('',#341,1000.);
#204=VECTOR('',#342,1000.);
#205=VECTOR('',#343,1000.);
#206=VECTOR('',#344,1000.);
#207=VECTOR('',#345,1000.);
#208=VECTOR('',#350,1000.);
#209=VECTOR('',#351,1000.);
#210=VECTOR('',#352,1000.);
#211=VECTOR('',#355,1000.);
#212=VECTOR('',#356,1000.);
#213=VECTOR('',#357,1000.);
#214=VECTOR('',#360,1000.);
#215=VECTOR('',#361,1000.);
#216=VECTOR('',#362,1000.);
#217=VECTOR('',#365,1000.);
#218=VECTOR('',#366,1000.);
#219=VECTOR('',#367,1000.);
#220=VECTOR('',#370,1000.);
#221=VECTOR('',#371,1000.);
#222=VECTOR('',#372,1000.);
#223=VECTOR('',#373,1000.);
#224=EDGE_LOOP('',(#20,#21,#22,#23));
#225=EDGE_LOOP('',(#24,#25,#26,#27));
#226=EDGE_LOOP('',(#28,#29,#30,#31));
#227=EDGE_LOOP('',(#32,#33,#34,#35));
#228=EDGE_LOOP('',(#36,#37,#38,#39,#40,#41,#42,#43));
#229=EDGE_LOOP('',(#44,#45,#46,#47));
#230=EDGE_LOOP('',(#48,#49,#50,#51));
#231=EDGE_LOOP('',(#52,#53,#54,#55));
#232=EDGE_LOOP('',(#56,#57,#58,#59));
#233=EDGE_LOOP('',(#60,#61,#62,#63));
#234=EDGE_LOOP('',(#64,#65,#66,#67));
#235=EDGE_LOOP('',(#68,#69,#70,#71,#72,#73,#74,#75));
#236=EDGE_LOOP('',(#76,#77,#78,#79));
#237=EDGE_LOOP('',(#80,#81,#82,#83));
#238=EDGE_LOOP('',(#84,#85,#86,#87));
#239=EDGE_LOOP('',(#88,#89,#90,#91));
#240=FACE_BOUND('',#224,.T.);
#241=FACE_BOUND('',#225,.T.);
#242=FACE_BOUND('',#226,.T.);
#243=FACE_BOUND('',#227,.T.);
#244=FACE_BOUND('',#228,.T.);
#245=FACE_BOUND('',#229,.T.);
#246=FACE_BOUND('',#230,.T.);
#247=FACE_BOUND('',#231,.T.);
#248=FACE_BOUND('',#232,.T.);
#249=FACE_BOUND('',#233,.T.);
#250=FACE_BOUND('',#234,.T.);
#251=FACE_BOUND('',#235,.T.);
#252=FACE_BOUND('',#236,.T.);
#253=FACE_BOUND('',#237,.T.);
#254=FACE_BOUND('',#238,.T.);
#255=FACE_BOUND('',#239,.T.);
#256=PLANE('',#299);
#257=PLANE('',#300);
#258=PLANE('',#301);
#259=PLANE('',#302);
#260=PLANE('',#303);
#261=PLANE('',#304);
#262=PLANE('',#305);
#263=PLANE('',#306);
#264=PLANE('',#307);
#265=PLANE('',#308);
#266=PLANE('',#309);
#267=PLANE('',#310);
#268=PLANE('',#311);
#269=PLANE('',#312);
#270=PLANE('',#313);
#271=ADVANCED_FACE('',(#240),#256,.F.);
#272=ADVANCED_FACE('',(#241),#257,.F.);
#273=ADVANCED_FACE('',(#242),#258,.F.);
#274=ADVANCED_FACE('',(#243),#259,.F.);
#275=ADVANCED_FACE('',(#244,#245),#260,.T.);
#276=ADVANCED_FACE('',(#246),#261,.F.);
#277=ADVANCED_FACE('',(#247),#262,.F.);
#278=ADVANCED_FACE('',(#248),#263,.F.);
#279=ADVANCED_FACE('',(#249),#264,.F.);
#280=ADVANCED_FACE('',(#250),#265,.F.);
#281=ADVANCED_FACE('',(#251),#266,.T.);
#282=ADVANCED_FACE('',(#252),#267,.F.);
#283=ADVANCED_FACE('',(#253),#268,.F.);
#284=ADVANCED_FACE('',(#254),#269,.F.);
#285=ADVANCED_FACE('',(#255),#270,.F.);
#286=CLOSED_SHELL('',(#271,#272,#273,#274,#275,#276,#277,#278,#279,#280,
#281,#282,#283,#284,#285));
#287=STYLED_ITEM('',(#288),#295);
#288=PRESENTATION_STYLE_ASSIGNMENT((#289));
#289=SURFACE_STYLE_USAGE(.BOTH.,#290);
#290=SURFACE_SIDE_STYLE('',(#291));
#291=SURFACE_STYLE_FILL_AREA(#292);
#292=FILL_AREA_STYLE('',(#293));
#293=FILL_AREA_STYLE_COLOUR('',#294);
#294=COLOUR_RGB('',0.645180702209473,0.678915679454803,0.699999988079071);
#295=MANIFOLD_SOLID_BREP('',#286);
#296=SHAPE_DEFINITION_REPRESENTATION(#464,#297);
#297=SHAPE_REPRESENTATION('SNP 2420 LED 230V',(#298),#459);
#298=AXIS2_PLACEMENT_3D('',#382,#314,#315);
#299=AXIS2_PLACEMENT_3D('',#383,#316,#317);
#300=AXIS2_PLACEMENT_3D('',#392,#322,#323);
#301=AXIS2_PLACEMENT_3D('',#398,#327,#328);
#302=AXIS2_PLACEMENT_3D('',#404,#332,#333);
#303=AXIS2_PLACEMENT_3D('',#407,#336,#337);
#304=AXIS2_PLACEMENT_3D('',#424,#346,#347);
#305=AXIS2_PLACEMENT_3D('',#425,#348,#349);
#306=AXIS2_PLACEMENT_3D('',#431,#353,#354);
#307=AXIS2_PLACEMENT_3D('',#437,#358,#359);
#308=AXIS2_PLACEMENT_3D('',#443,#363,#364);
#309=AXIS2_PLACEMENT_3D('',#449,#368,#369);
#310=AXIS2_PLACEMENT_3D('',#454,#374,#375);
#311=AXIS2_PLACEMENT_3D('',#455,#376,#377);
#312=AXIS2_PLACEMENT_3D('',#456,#378,#379);
#313=AXIS2_PLACEMENT_3D('',#457,#380,#381);
#314=DIRECTION('',(0.,0.,1.));
#315=DIRECTION('',(1.,0.,0.));
#316=DIRECTION('',(-1.,0.,0.));
#317=DIRECTION('',(0.,0.,1.));
#318=DIRECTION('',(0.,1.,0.));
#319=DIRECTION('',(0.,0.,-1.));
#320=DIRECTION('',(0.,1.,0.));
#321=DIRECTION('',(0.,0.,-1.));
#322=DIRECTION('',(0.,-1.,0.));
#323=DIRECTION('',(0.,0.,-1.));
#324=DIRECTION('',(-1.,0.,0.));
#325=DIRECTION('',(0.,0.,-1.));
#326=DIRECTION('',(-1.,0.,0.));
#327=DIRECTION('',(1.,0.,0.));
#328=DIRECTION('',(0.,0.,-1.));
#329=DIRECTION('',(0.,-1.,0.));
#330=DIRECTION('',(0.,0.,-1.));
#331=DIRECTION('',(0.,-1.,0.));
#332=DIRECTION('',(0.,1.,0.));
#333=DIRECTION('',(0.,0.,1.));
#334=DIRECTION('',(1.,0.,0.));
#335=DIRECTION('',(1.,0.,0.));
#336=DIRECTION('',(0.,0.,1.));
#337=DIRECTION('',(1.,0.,0.));
#338=DIRECTION('',(-7.93016446160826E-17,1.,0.));
#339=DIRECTION('',(0.707106781186547,0.707106781186548,0.));
#340=DIRECTION('',(1.,7.93016446160826E-17,0.));
#341=DIRECTION('',(0.707106781186548,-0.707106781186547,0.));
#342=DIRECTION('',(7.93016446160826E-17,-1.,0.));
#343=DIRECTION('',(-0.707106781186547,-0.707106781186548,0.));
#344=DIRECTION('',(-1.,-7.93016446160826E-17,0.));
#345=DIRECTION('',(-0.707106781186548,0.707106781186547,0.));
#346=DIRECTION('',(0.,0.,1.));
#347=DIRECTION('',(1.,0.,0.));
#348=DIRECTION('',(-1.,-7.93016446160826E-17,0.));
#349=DIRECTION('',(7.93016446160826E-17,-1.,0.));
#350=DIRECTION('',(-7.93016446160826E-17,1.,0.));
#351=DIRECTION('',(0.,0.,-1.));
#352=DIRECTION('',(0.,0.,1.));
#353=DIRECTION('',(7.93016446160826E-17,-1.,0.));
#354=DIRECTION('',(1.,7.93016446160826E-17,0.));
#355=DIRECTION('',(-1.,-7.93016446160826E-17,0.));
#356=DIRECTION('',(0.,0.,-1.));
#357=DIRECTION('',(0.,0.,1.));
#358=DIRECTION('',(1.,7.93016446160826E-17,0.));
#359=DIRECTION('',(-7.93016446160826E-17,1.,0.));
#360=DIRECTION('',(0.,0.,1.));
#361=DIRECTION('',(7.93016446160826E-17,-1.,0.));
#362=DIRECTION('',(0.,0.,-1.));
#363=DIRECTION('',(-7.93016446160826E-17,1.,0.));
#364=DIRECTION('',(-1.,-7.93016446160826E-17,0.));
#365=DIRECTION('',(0.,0.,1.));
#366=DIRECTION('',(1.,7.93016446160826E-17,0.));
#367=DIRECTION('',(0.,0.,-1.));
#368=DIRECTION('',(0.,0.,1.));
#369=DIRECTION('',(1.,0.,0.));
#370=DIRECTION('',(-0.707106781186547,-0.707106781186548,0.));
#371=DIRECTION('',(0.707106781186548,-0.707106781186547,0.));
#372=DIRECTION('',(0.707106781186547,0.707106781186548,0.));
#373=DIRECTION('',(-0.707106781186548,0.707106781186547,0.));
#374=DIRECTION('',(-0.707106781186548,0.707106781186547,0.));
#375=DIRECTION('',(0.,0.,-1.));
#376=DIRECTION('',(-0.707106781186547,-0.707106781186548,0.));
#377=DIRECTION('',(0.,0.,-1.));
#378=DIRECTION('',(0.707106781186547,0.707106781186548,0.));
#379=DIRECTION('',(0.,0.,-1.));
#380=DIRECTION('',(0.707106781186548,-0.707106781186547,0.));
#381=DIRECTION('',(0.,0.,-1.));
#382=CARTESIAN_POINT('',(0.,0.,0.));
#383=CARTESIAN_POINT('',(122.5,-122.5,111.));
#384=CARTESIAN_POINT('',(122.5,-122.5,0.));
#385=CARTESIAN_POINT('',(122.5,-122.5,0.));
#386=CARTESIAN_POINT('',(122.5,122.5,0.));
#387=CARTESIAN_POINT('',(122.5,122.5,111.));
#388=CARTESIAN_POINT('',(122.5,122.5,111.));
#389=CARTESIAN_POINT('',(122.5,-122.5,111.));
#390=CARTESIAN_POINT('',(122.5,-122.5,111.));
#391=CARTESIAN_POINT('',(122.5,-122.5,111.));
#392=CARTESIAN_POINT('',(122.5,122.5,111.));
#393=CARTESIAN_POINT('',(122.5,122.5,0.));
#394=CARTESIAN_POINT('',(-122.5,122.5,0.));
#395=CARTESIAN_POINT('',(-122.5,122.5,111.));
#396=CARTESIAN_POINT('',(-122.5,122.5,111.));
#397=CARTESIAN_POINT('',(122.5,122.5,111.));
#398=CARTESIAN_POINT('',(-122.5,122.5,111.));
#399=CARTESIAN_POINT('',(-122.5,122.5,0.));
#400=CARTESIAN_POINT('',(-122.5,-122.5,0.));
#401=CARTESIAN_POINT('',(-122.5,-122.5,111.));
#402=CARTESIAN_POINT('',(-122.5,-122.5,111.));
#403=CARTESIAN_POINT('',(-122.5,122.5,111.));
#404=CARTESIAN_POINT('',(-122.5,-122.5,111.));
#405=CARTESIAN_POINT('',(-122.5,-122.5,0.));
#406=CARTESIAN_POINT('',(-122.5,-122.5,111.));
#407=CARTESIAN_POINT('',(0.,0.,111.));
#408=CARTESIAN_POINT('',(87.5,-87.5,111.));
#409=CARTESIAN_POINT('',(87.5,-77.5,111.));
#410=CARTESIAN_POINT('',(87.5,77.5,111.));
#411=CARTESIAN_POINT('',(87.5,-77.5,111.));
#412=CARTESIAN_POINT('',(77.5,-87.5,111.));
#413=CARTESIAN_POINT('',(-87.5,-87.5,111.));
#414=CARTESIAN_POINT('',(-77.5,-87.5,111.));
#415=CARTESIAN_POINT('',(-77.5,-87.5,111.));
#416=CARTESIAN_POINT('',(-87.5,-77.5,111.));
#417=CARTESIAN_POINT('',(-87.5,87.5,111.));
#418=CARTESIAN_POINT('',(-87.5,77.5,111.));
#419=CARTESIAN_POINT('',(-87.5,77.5,111.));
#420=CARTESIAN_POINT('',(-77.5,87.5,111.));
#421=CARTESIAN_POINT('',(87.5,87.5,111.));
#422=CARTESIAN_POINT('',(77.5,87.5,111.));
#423=CARTESIAN_POINT('',(77.5,87.5,111.));
#424=CARTESIAN_POINT('',(0.,0.,0.));
#425=CARTESIAN_POINT('',(87.5,-87.5,154.5));
#426=CARTESIAN_POINT('',(87.5,-87.5,154.5));
#427=CARTESIAN_POINT('',(87.5,-77.5,154.5));
#428=CARTESIAN_POINT('',(87.5,77.5,154.5));
#429=CARTESIAN_POINT('',(87.5,-77.5,154.5));
#430=CARTESIAN_POINT('',(87.5,77.5,154.5));
#431=CARTESIAN_POINT('',(87.5,87.5,154.5));
#432=CARTESIAN_POINT('',(87.5,87.5,154.5));
#433=CARTESIAN_POINT('',(77.5,87.5,154.5));
#434=CARTESIAN_POINT('',(-77.5,87.5,154.5));
#435=CARTESIAN_POINT('',(77.5,87.5,154.5));
#436=CARTESIAN_POINT('',(-77.5,87.5,154.5));
#437=CARTESIAN_POINT('',(-87.5,87.5,154.5));
#438=CARTESIAN_POINT('',(-87.5,-77.5,154.5));
#439=CARTESIAN_POINT('',(-87.5,-77.5,154.5));
#440=CARTESIAN_POINT('',(-87.5,87.5,154.5));
#441=CARTESIAN_POINT('',(-87.5,77.5,154.5));
#442=CARTESIAN_POINT('',(-87.5,77.5,154.5));
#443=CARTESIAN_POINT('',(-87.5,-87.5,154.5));
#444=CARTESIAN_POINT('',(77.5,-87.5,154.5));
#445=CARTESIAN_POINT('',(77.5,-87.5,154.5));
#446=CARTESIAN_POINT('',(-87.5,-87.5,154.5));
#447=CARTESIAN_POINT('',(-77.5,-87.5,154.5));
#448=CARTESIAN_POINT('',(-77.5,-87.5,154.5));
#449=CARTESIAN_POINT('',(0.,0.,154.5));
#450=CARTESIAN_POINT('',(82.5000000000001,-82.5,154.5));
#451=CARTESIAN_POINT('',(82.5,82.5000000000001,154.5));
#452=CARTESIAN_POINT('',(-82.5000000000001,82.4999999999999,154.5));
#453=CARTESIAN_POINT('',(-82.4999999999999,-82.5000000000001,154.5));
#454=CARTESIAN_POINT('',(87.5,-77.5,154.5));
#455=CARTESIAN_POINT('',(77.5,87.5,154.5));
#456=CARTESIAN_POINT('',(-77.5,-87.5,154.5));
#457=CARTESIAN_POINT('',(-87.5,77.5,154.5));
#458=MECHANICAL_DESIGN_GEOMETRIC_PRESENTATION_REPRESENTATION('',(#287),
#459);
#459=(
GEOMETRIC_REPRESENTATION_CONTEXT(3)
GLOBAL_UNCERTAINTY_ASSIGNED_CONTEXT((#460))
GLOBAL_UNIT_ASSIGNED_CONTEXT((#463,#462,#461))
REPRESENTATION_CONTEXT('SNP 2420 LED 230V','TOP_LEVEL_ASSEMBLY_PART')
);
#460=UNCERTAINTY_MEASURE_WITH_UNIT(LENGTH_MEASURE(0.005),#463,
'DISTANCE_ACCURACY_VALUE','Maximum Tolerance applied to model');
#461=(
NAMED_UNIT(*)
SI_UNIT($,.STERADIAN.)
SOLID_ANGLE_UNIT()
);
#462=(
NAMED_UNIT(*)
PLANE_ANGLE_UNIT()
SI_UNIT($,.RADIAN.)
);
#463=(
LENGTH_UNIT()
NAMED_UNIT(*)
SI_UNIT(.MILLI.,.METRE.)
);
#464=PRODUCT_DEFINITION_SHAPE('','',#465);
#465=PRODUCT_DEFINITION('','',#467,#466);
#466=PRODUCT_DEFINITION_CONTEXT('',#473,'design');
#467=PRODUCT_DEFINITION_FORMATION_WITH_SPECIFIED_SOURCE('','',#469,
 .NOT_KNOWN.);
#468=PRODUCT_RELATED_PRODUCT_CATEGORY('','',(#469));
#469=PRODUCT('SNP 2420 LED 230V','SNP 2420 LED 230V',
'SNP 2420 LED 230V',(#471));
#470=PRODUCT_CATEGORY('','');
#471=PRODUCT_CONTEXT('',#473,'mechanical');
#472=APPLICATION_PROTOCOL_DEFINITION('international standard',
'automotive_design',2010,#473);
#473=APPLICATION_CONTEXT(
'core data for automotive mechanical design processes');
ENDSEC;
END-ISO-10303-21;
