ISO-10303-21;
HEADER;
/* Generated by software containing ST-Developer
 * from STEP Tools, Inc. (www.steptools.com) 
 */
/* OPTION: strings as raw bytes, not using required /X/ escapes */

FILE_DESCRIPTION(
/* description */ ('Unknown'),
/* implementation_level */ '2;1');

FILE_NAME(
/* name */ 'SNP 2518.1',
/* time_stamp */ '2018-08-07T16:21:19+02:00',
/* author */ ('Unknown'),
/* organization */ ('Unknown'),
/* preprocessor_version */ 'ST-DEVELOPER v16.7',
/* originating_system */ 'DEX',
/* authorisation */ $);

FILE_SCHEMA (('AUTOMOTIVE_DESIGN {1 0 10303 214 3 1 1}'));
ENDSEC;

DATA;
#10=PROPERTY_DEFINITION_REPRESENTATION(#14,#12);
#11=PROPERTY_DEFINITION_REPRESENTATION(#15,#13);
#12=REPRESENTATION('',(#16),#359);
#13=REPRESENTATION('',(#17),#359);
#14=PROPERTY_DEFINITION('pmi validation property','',#364);
#15=PROPERTY_DEFINITION('pmi validation property','',#364);
#16=VALUE_REPRESENTATION_ITEM('number of annotations',COUNT_MEASURE(0.));
#17=VALUE_REPRESENTATION_ITEM('number of views',COUNT_MEASURE(0.));
#18=SHAPE_REPRESENTATION_RELATIONSHIP('','',#195,#19);
#19=ADVANCED_BREP_SHAPE_REPRESENTATION('',(#193),#359);
#20=B_SPLINE_CURVE_WITH_KNOTS('',3,(#300,#301,#302,#303,#304,#305,#306,
#307,#308,#309,#310,#311,#312,#313,#314,#315,#316,#317,#318),
 .UNSPECIFIED.,.F.,.F.,(4,1,1,1,1,1,1,1,1,1,1,1,1,1,1,1,4),(-0.0760083523232421,
-0.0665179882686455,-0.0570276242140489,-0.0475372601594523,-0.0380468961048557,
-0.0285565320502591,-0.0190661679956625,-0.00957580394106589,-8.54398864692865E-5,
0.00940492416812732,0.0188952882227239,0.0283856522773205,0.0331308343046188,
0.0378760163319171,0.0568567444411104,0.066347108495707,0.0758374725503036),
 .UNSPECIFIED.);
#21=B_SPLINE_CURVE_WITH_KNOTS('',3,(#329,#330,#331,#332,#333,#334,#335,
#336,#337,#338,#339,#340,#341,#342,#343,#344,#345,#346,#347),
 .UNSPECIFIED.,.F.,.F.,(4,1,1,1,1,1,1,1,1,1,1,1,1,1,1,1,4),(-0.0760083523232421,
-0.0665179882686455,-0.0570276242140489,-0.0475372601594523,-0.0380468961048557,
-0.0285565320502591,-0.0190661679956625,-0.00957580394106588,-8.54398864692796E-5,
0.00940492416812732,0.0188952882227239,0.0283856522773205,0.0331308343046188,
0.0378760163319171,0.0568567444411103,0.0663471084957069,0.0758374725503035),
 .UNSPECIFIED.);
#22=ELLIPSE('',#203,1243.68039035573,130.);
#23=ELLIPSE('',#204,1243.68039035573,130.);
#24=ELLIPSE('',#208,1243.68039035573,130.);
#25=ELLIPSE('',#211,1243.68039035573,130.);
#26=CYLINDRICAL_SURFACE('',#201,130.);
#27=CYLINDRICAL_SURFACE('',#207,130.);
#28=CYLINDRICAL_SURFACE('',#212,104.507699395265);
#29=LINE('',#276,#41);
#30=LINE('',#280,#42);
#31=LINE('',#282,#43);
#32=LINE('',#285,#44);
#33=LINE('',#287,#45);
#34=LINE('',#289,#46);
#35=LINE('',#298,#47);
#36=LINE('',#320,#48);
#37=LINE('',#322,#49);
#38=LINE('',#324,#50);
#39=LINE('',#353,#51);
#40=LINE('',#356,#52);
#41=VECTOR('',#223,1000.);
#42=VECTOR('',#226,1000.);
#43=VECTOR('',#229,1000.);
#44=VECTOR('',#230,1000.);
#45=VECTOR('',#231,1000.);
#46=VECTOR('',#232,1000.);
#47=VECTOR('',#243,1000.);
#48=VECTOR('',#246,1000.);
#49=VECTOR('',#247,1000.);
#50=VECTOR('',#248,1000.);
#51=VECTOR('',#263,1000.);
#52=VECTOR('',#268,1000.);
#53=ORIENTED_EDGE('',*,*,#101,.F.);
#54=ORIENTED_EDGE('',*,*,#102,.T.);
#55=ORIENTED_EDGE('',*,*,#103,.F.);
#56=ORIENTED_EDGE('',*,*,#104,.T.);
#57=ORIENTED_EDGE('',*,*,#105,.T.);
#58=ORIENTED_EDGE('',*,*,#106,.T.);
#59=ORIENTED_EDGE('',*,*,#107,.F.);
#60=ORIENTED_EDGE('',*,*,#108,.T.);
#61=ORIENTED_EDGE('',*,*,#109,.F.);
#62=ORIENTED_EDGE('',*,*,#110,.F.);
#63=ORIENTED_EDGE('',*,*,#101,.T.);
#64=ORIENTED_EDGE('',*,*,#111,.F.);
#65=ORIENTED_EDGE('',*,*,#112,.T.);
#66=ORIENTED_EDGE('',*,*,#113,.F.);
#67=ORIENTED_EDGE('',*,*,#114,.F.);
#68=ORIENTED_EDGE('',*,*,#107,.T.);
#69=ORIENTED_EDGE('',*,*,#113,.T.);
#70=ORIENTED_EDGE('',*,*,#115,.T.);
#71=ORIENTED_EDGE('',*,*,#116,.F.);
#72=ORIENTED_EDGE('',*,*,#117,.F.);
#73=ORIENTED_EDGE('',*,*,#118,.F.);
#74=ORIENTED_EDGE('',*,*,#119,.T.);
#75=ORIENTED_EDGE('',*,*,#105,.F.);
#76=ORIENTED_EDGE('',*,*,#120,.F.);
#77=ORIENTED_EDGE('',*,*,#116,.T.);
#78=ORIENTED_EDGE('',*,*,#121,.F.);
#79=ORIENTED_EDGE('',*,*,#122,.F.);
#80=ORIENTED_EDGE('',*,*,#103,.T.);
#81=ORIENTED_EDGE('',*,*,#108,.F.);
#82=ORIENTED_EDGE('',*,*,#114,.T.);
#83=ORIENTED_EDGE('',*,*,#117,.T.);
#84=ORIENTED_EDGE('',*,*,#120,.T.);
#85=ORIENTED_EDGE('',*,*,#121,.T.);
#86=ORIENTED_EDGE('',*,*,#115,.F.);
#87=ORIENTED_EDGE('',*,*,#112,.F.);
#88=ORIENTED_EDGE('',*,*,#123,.F.);
#89=ORIENTED_EDGE('',*,*,#122,.T.);
#90=ORIENTED_EDGE('',*,*,#123,.T.);
#91=ORIENTED_EDGE('',*,*,#111,.T.);
#92=ORIENTED_EDGE('',*,*,#104,.F.);
#93=ORIENTED_EDGE('',*,*,#124,.F.);
#94=ORIENTED_EDGE('',*,*,#109,.T.);
#95=ORIENTED_EDGE('',*,*,#106,.F.);
#96=ORIENTED_EDGE('',*,*,#119,.F.);
#97=ORIENTED_EDGE('',*,*,#118,.T.);
#98=ORIENTED_EDGE('',*,*,#102,.F.);
#99=ORIENTED_EDGE('',*,*,#110,.T.);
#100=ORIENTED_EDGE('',*,*,#124,.T.);
#101=EDGE_CURVE('',#125,#126,#141,.T.);
#102=EDGE_CURVE('',#125,#127,#29,.T.);
#103=EDGE_CURVE('',#128,#127,#142,.T.);
#104=EDGE_CURVE('',#128,#126,#30,.T.);
#105=EDGE_CURVE('',#129,#130,#31,.T.);
#106=EDGE_CURVE('',#130,#131,#32,.T.);
#107=EDGE_CURVE('',#132,#131,#33,.T.);
#108=EDGE_CURVE('',#132,#129,#34,.T.);
#109=EDGE_CURVE('',#133,#131,#143,.T.);
#110=EDGE_CURVE('',#125,#133,#22,.T.);
#111=EDGE_CURVE('',#134,#126,#23,.T.);
#112=EDGE_CURVE('',#134,#135,#144,.T.);
#113=EDGE_CURVE('',#136,#135,#35,.T.);
#114=EDGE_CURVE('',#132,#136,#20,.T.);
#115=EDGE_CURVE('',#135,#137,#36,.T.);
#116=EDGE_CURVE('',#138,#137,#37,.T.);
#117=EDGE_CURVE('',#136,#138,#38,.T.);
#118=EDGE_CURVE('',#139,#127,#24,.T.);
#119=EDGE_CURVE('',#139,#130,#145,.T.);
#120=EDGE_CURVE('',#138,#129,#21,.T.);
#121=EDGE_CURVE('',#140,#137,#146,.T.);
#122=EDGE_CURVE('',#128,#140,#25,.T.);
#123=EDGE_CURVE('',#140,#134,#39,.T.);
#124=EDGE_CURVE('',#133,#139,#40,.T.);
#125=VERTEX_POINT('',#274);
#126=VERTEX_POINT('',#275);
#127=VERTEX_POINT('',#277);
#128=VERTEX_POINT('',#279);
#129=VERTEX_POINT('',#283);
#130=VERTEX_POINT('',#284);
#131=VERTEX_POINT('',#286);
#132=VERTEX_POINT('',#288);
#133=VERTEX_POINT('',#292);
#134=VERTEX_POINT('',#295);
#135=VERTEX_POINT('',#297);
#136=VERTEX_POINT('',#299);
#137=VERTEX_POINT('',#321);
#138=VERTEX_POINT('',#323);
#139=VERTEX_POINT('',#327);
#140=VERTEX_POINT('',#349);
#141=CIRCLE('',#198,130.);
#142=CIRCLE('',#199,130.);
#143=CIRCLE('',#202,130.);
#144=CIRCLE('',#205,130.);
#145=CIRCLE('',#209,130.);
#146=CIRCLE('',#210,130.);
#147=EDGE_LOOP('',(#53,#54,#55,#56));
#148=EDGE_LOOP('',(#57,#58,#59,#60));
#149=EDGE_LOOP('',(#61,#62,#63,#64,#65,#66,#67,#68));
#150=EDGE_LOOP('',(#69,#70,#71,#72));
#151=EDGE_LOOP('',(#73,#74,#75,#76,#77,#78,#79,#80));
#152=EDGE_LOOP('',(#81,#82,#83,#84));
#153=EDGE_LOOP('',(#85,#86,#87,#88));
#154=EDGE_LOOP('',(#89,#90,#91,#92));
#155=EDGE_LOOP('',(#93,#94,#95,#96));
#156=EDGE_LOOP('',(#97,#98,#99,#100));
#157=FACE_BOUND('',#147,.T.);
#158=FACE_BOUND('',#148,.T.);
#159=FACE_BOUND('',#149,.T.);
#160=FACE_BOUND('',#150,.T.);
#161=FACE_BOUND('',#151,.T.);
#162=FACE_BOUND('',#152,.T.);
#163=FACE_BOUND('',#153,.T.);
#164=FACE_BOUND('',#154,.T.);
#165=FACE_BOUND('',#155,.T.);
#166=FACE_BOUND('',#156,.T.);
#167=PLANE('',#197);
#168=PLANE('',#200);
#169=PLANE('',#206);
#170=PLANE('',#213);
#171=PLANE('',#214);
#172=PLANE('',#215);
#173=PLANE('',#216);
#174=ADVANCED_FACE('',(#157),#167,.T.);
#175=ADVANCED_FACE('',(#158),#168,.T.);
#176=ADVANCED_FACE('',(#159),#26,.T.);
#177=ADVANCED_FACE('',(#160),#169,.T.);
#178=ADVANCED_FACE('',(#161),#27,.T.);
#179=ADVANCED_FACE('',(#162),#28,.T.);
#180=ADVANCED_FACE('',(#163),#170,.T.);
#181=ADVANCED_FACE('',(#164),#171,.T.);
#182=ADVANCED_FACE('',(#165),#172,.F.);
#183=ADVANCED_FACE('',(#166),#173,.T.);
#184=CLOSED_SHELL('',(#174,#175,#176,#177,#178,#179,#180,#181,#182,#183));
#185=STYLED_ITEM('',(#186),#193);
#186=PRESENTATION_STYLE_ASSIGNMENT((#187));
#187=SURFACE_STYLE_USAGE(.BOTH.,#188);
#188=SURFACE_SIDE_STYLE('',(#189));
#189=SURFACE_STYLE_FILL_AREA(#190);
#190=FILL_AREA_STYLE('',(#191));
#191=FILL_AREA_STYLE_COLOUR('',#192);
#192=COLOUR_RGB('',0.645180702209473,0.678915679454803,0.699999988079071);
#193=MANIFOLD_SOLID_BREP('',#184);
#194=SHAPE_DEFINITION_REPRESENTATION(#364,#195);
#195=SHAPE_REPRESENTATION('Part3',(#196),#359);
#196=AXIS2_PLACEMENT_3D('',#271,#217,#218);
#197=AXIS2_PLACEMENT_3D('',#272,#219,#220);
#198=AXIS2_PLACEMENT_3D('',#273,#221,#222);
#199=AXIS2_PLACEMENT_3D('',#278,#224,#225);
#200=AXIS2_PLACEMENT_3D('',#281,#227,#228);
#201=AXIS2_PLACEMENT_3D('',#290,#233,#234);
#202=AXIS2_PLACEMENT_3D('',#291,#235,#236);
#203=AXIS2_PLACEMENT_3D('',#293,#237,#238);
#204=AXIS2_PLACEMENT_3D('',#294,#239,#240);
#205=AXIS2_PLACEMENT_3D('',#296,#241,#242);
#206=AXIS2_PLACEMENT_3D('',#319,#244,#245);
#207=AXIS2_PLACEMENT_3D('',#325,#249,#250);
#208=AXIS2_PLACEMENT_3D('',#326,#251,#252);
#209=AXIS2_PLACEMENT_3D('',#328,#253,#254);
#210=AXIS2_PLACEMENT_3D('',#348,#255,#256);
#211=AXIS2_PLACEMENT_3D('',#350,#257,#258);
#212=AXIS2_PLACEMENT_3D('',#351,#259,#260);
#213=AXIS2_PLACEMENT_3D('',#352,#261,#262);
#214=AXIS2_PLACEMENT_3D('',#354,#264,#265);
#215=AXIS2_PLACEMENT_3D('',#355,#266,#267);
#216=AXIS2_PLACEMENT_3D('',#357,#269,#270);
#217=DIRECTION('',(0.,0.,1.));
#218=DIRECTION('',(1.,0.,0.));
#219=DIRECTION('',(0.,0.,-1.));
#220=DIRECTION('',(-1.,0.,0.));
#221=DIRECTION('',(0.,0.,1.));
#222=DIRECTION('',(1.,0.,0.));
#223=DIRECTION('',(-1.,2.17812474872956E-16,0.));
#224=DIRECTION('',(0.,0.,1.));
#225=DIRECTION('',(1.,0.,0.));
#226=DIRECTION('',(1.,2.17812474872956E-16,0.));
#227=DIRECTION('',(1.16947650065852E-16,-1.,0.));
#228=DIRECTION('',(1.,1.16947650065852E-16,0.));
#229=DIRECTION('',(0.,0.,-1.));
#230=DIRECTION('',(1.,8.72254923380803E-17,1.3083823850712E-16));
#231=DIRECTION('',(0.,0.,-1.));
#232=DIRECTION('',(-1.,-2.05596856412066E-16,0.));
#233=DIRECTION('',(0.,0.,-1.));
#234=DIRECTION('',(-1.,0.,0.));
#235=DIRECTION('',(1.3083823850712E-16,1.71186446556461E-32,-1.));
#236=DIRECTION('',(-1.,0.,-1.3083823850712E-16));
#237=DIRECTION('',(-2.16619275345507E-16,-0.994521895368274,-0.104528463267653));
#238=DIRECTION('',(2.27676032789944E-17,0.104528463267653,-0.994521895368274));
#239=DIRECTION('',(-2.16619275345507E-16,0.994521895368274,-0.104528463267653));
#240=DIRECTION('',(2.27676032789944E-17,-0.104528463267653,-0.994521895368274));
#241=DIRECTION('',(1.090318654226E-16,2.3775895355064E-32,1.));
#242=DIRECTION('',(1.,0.,-1.090318654226E-16));
#243=DIRECTION('',(0.,0.,-1.));
#244=DIRECTION('',(-1.94912750109754E-16,1.,0.));
#245=DIRECTION('',(-1.,-1.94912750109754E-16,0.));
#246=DIRECTION('',(-1.,-1.7445098467616E-16,1.090318654226E-16));
#247=DIRECTION('',(0.,0.,-1.));
#248=DIRECTION('',(-1.,-2.05596856412066E-16,0.));
#249=DIRECTION('',(0.,0.,-1.));
#250=DIRECTION('',(-1.,0.,0.));
#251=DIRECTION('',(-2.16619275345507E-16,-0.994521895368274,-0.104528463267653));
#252=DIRECTION('',(2.27676032789944E-17,0.104528463267653,-0.994521895368274));
#253=DIRECTION('',(-1.3083823850712E-16,-1.71186446556461E-32,1.));
#254=DIRECTION('',(1.,0.,1.3083823850712E-16));
#255=DIRECTION('',(-1.090318654226E-16,-2.3775895355064E-32,-1.));
#256=DIRECTION('',(-1.,0.,1.090318654226E-16));
#257=DIRECTION('',(-2.16619275345507E-16,0.994521895368274,-0.104528463267653));
#258=DIRECTION('',(2.27676032789944E-17,-0.104528463267653,-0.994521895368274));
#259=DIRECTION('',(-1.,-2.05596856412066E-16,0.));
#260=DIRECTION('',(2.05596856412066E-16,-1.,0.));
#261=DIRECTION('',(-1.090318654226E-16,-2.3775895355064E-32,-1.));
#262=DIRECTION('',(-1.,0.,1.090318654226E-16));
#263=DIRECTION('',(1.,2.06352764038123E-16,-1.090318654226E-16));
#264=DIRECTION('',(-2.16619275345507E-16,0.994521895368274,-0.104528463267653));
#265=DIRECTION('',(-1.,-2.1831361041094E-16,-4.767986149343E-18));
#266=DIRECTION('',(-1.3083823850712E-16,-1.71186446556461E-32,1.));
#267=DIRECTION('',(1.,0.,1.3083823850712E-16));
#268=DIRECTION('',(-1.,2.31564127874755E-16,-1.3083823850712E-16));
#269=DIRECTION('',(-2.16619275345507E-16,-0.994521895368274,-0.104528463267653));
#270=DIRECTION('',(1.,-2.15902529785134E-16,-1.8171913653092E-17));
#271=CARTESIAN_POINT('',(0.,0.,0.));
#272=CARTESIAN_POINT('',(0.,0.,0.));
#273=CARTESIAN_POINT('',(48.,-1.62947059091754E-14,0.));
#274=CARTESIAN_POINT('',(163.005272529187,-60.6117751801361,0.));
#275=CARTESIAN_POINT('',(163.005272529187,60.6117751801361,0.));
#276=CARTESIAN_POINT('',(-1.32020007584286E-14,-60.6117751801361,0.));
#277=CARTESIAN_POINT('',(-163.005272529187,-60.611775180136,0.));
#278=CARTESIAN_POINT('',(-48.,-1.62947059091754E-14,0.));
#279=CARTESIAN_POINT('',(-163.005272529187,60.611775180136,0.));
#280=CARTESIAN_POINT('',(-1.32020007584286E-14,60.6117751801361,0.));
#281=CARTESIAN_POINT('',(178.,-67.5000000000001,82.));
#282=CARTESIAN_POINT('',(-159.102430216445,-67.5000000000001,82.));
#283=CARTESIAN_POINT('',(-159.102430216445,-67.5000000000002,57.2770687806912));
#284=CARTESIAN_POINT('',(-159.102430216445,-67.5000000000001,37.2770687806912));
#285=CARTESIAN_POINT('',(-159.102430216445,-67.5000000000001,37.2770687806912));
#286=CARTESIAN_POINT('',(159.102430216445,-67.5000000000001,37.2770687806913));
#287=CARTESIAN_POINT('',(159.102430216445,-67.5000000000001,82.));
#288=CARTESIAN_POINT('',(159.102430216445,-67.5000000000001,57.2770687806912));
#289=CARTESIAN_POINT('',(178.,-67.5000000000001,57.2770687806912));
#290=CARTESIAN_POINT('',(48.,-1.62947059091754E-14,82.));
#291=CARTESIAN_POINT('',(48.,-1.62947059091754E-14,37.2770687806912));
#292=CARTESIAN_POINT('',(160.853493430204,-64.5297529872767,37.2770687806913));
#293=CARTESIAN_POINT('',(48.,-1.62947059091754E-14,-576.682519281218));
#294=CARTESIAN_POINT('',(48.,-1.62947059091754E-14,-576.682519281219));
#295=CARTESIAN_POINT('',(160.853493430204,64.5297529872767,37.2770687806912));
#296=CARTESIAN_POINT('',(48.,-1.62947059091754E-14,37.2770687806912));
#297=CARTESIAN_POINT('',(159.102430216445,67.5000000000001,37.2770687806912));
#298=CARTESIAN_POINT('',(159.102430216445,67.5,82.));
#299=CARTESIAN_POINT('',(159.102430216445,67.5000000000002,57.2770687806912));
#300=CARTESIAN_POINT('',(159.102430216445,-67.5000000000001,57.2770687806912));
#301=CARTESIAN_POINT('',(160.450414920971,-65.2812684952975,59.1541736465866));
#302=CARTESIAN_POINT('',(163.058452759128,-60.6895885239401,62.7223449852884));
#303=CARTESIAN_POINT('',(166.661667142686,-53.3157602682439,67.5218217632177));
#304=CARTESIAN_POINT('',(169.904725311564,-45.4396467075603,71.7509786462071));
#305=CARTESIAN_POINT('',(172.743618722929,-36.9617495089853,75.3911585762906));
#306=CARTESIAN_POINT('',(175.013298718145,-28.2010751351997,78.2642404966957));
#307=CARTESIAN_POINT('',(176.695677842049,-19.1397979372598,80.3746646332395));
#308=CARTESIAN_POINT('',(177.752057187154,-9.75427318179347,81.6917987566996));
#309=CARTESIAN_POINT('',(178.120009387014,-0.0664357017728419,82.1491738777639));
#310=CARTESIAN_POINT('',(177.767731107566,9.49878164838858,81.7112890932747));
#311=CARTESIAN_POINT('',(176.740454062784,18.8406296167511,80.4305909106788));
#312=CARTESIAN_POINT('',(175.341928909232,26.4726584992831,78.6767753118148));
#313=CARTESIAN_POINT('',(173.906145745375,32.4754573321118,76.8627534534522));
#314=CARTESIAN_POINT('',(171.490606163681,41.1990455762125,73.793595406384));
#315=CARTESIAN_POINT('',(167.93811327041,50.6943348935288,69.2206836562327));
#316=CARTESIAN_POINT('',(163.070398607596,60.6708196110781,62.7390070436882));
#317=CARTESIAN_POINT('',(160.452146597243,65.2784182220796,59.1565850522547));
#318=CARTESIAN_POINT('',(159.102430216445,67.5,57.2770687806913));
#319=CARTESIAN_POINT('',(-178.,67.5000000000001,82.));
#320=CARTESIAN_POINT('',(159.102430216445,67.5000000000001,37.2770687806912));
#321=CARTESIAN_POINT('',(-159.102430216445,67.5000000000001,37.2770687806912));
#322=CARTESIAN_POINT('',(-159.102430216445,67.5,82.));
#323=CARTESIAN_POINT('',(-159.102430216445,67.5,57.2770687806912));
#324=CARTESIAN_POINT('',(178.,67.5000000000002,57.2770687806912));
#325=CARTESIAN_POINT('',(-48.,-1.62947059091754E-14,82.));
#326=CARTESIAN_POINT('',(-48.,-1.62947059091754E-14,-576.682519281218));
#327=CARTESIAN_POINT('',(-160.853493430204,-64.5297529872766,37.2770687806912));
#328=CARTESIAN_POINT('',(-48.,-1.62947059091754E-14,37.2770687806912));
#329=CARTESIAN_POINT('',(-159.102430216445,67.5000000000001,57.2770687806911));
#330=CARTESIAN_POINT('',(-160.450414920971,65.2812684952976,59.1541736465865));
#331=CARTESIAN_POINT('',(-163.058452759128,60.6895885239401,62.7223449852884));
#332=CARTESIAN_POINT('',(-166.661667142686,53.3157602682438,67.5218217632178));
#333=CARTESIAN_POINT('',(-169.904725311564,45.4396467075603,71.7509786462071));
#334=CARTESIAN_POINT('',(-172.743618722929,36.9617495089852,75.3911585762906));
#335=CARTESIAN_POINT('',(-175.013298718145,28.2010751351997,78.2642404966957));
#336=CARTESIAN_POINT('',(-176.695677842049,19.1397979372597,80.3746646332396));
#337=CARTESIAN_POINT('',(-177.752057187154,9.75427318179344,81.6917987566996));
#338=CARTESIAN_POINT('',(-178.120009387014,0.0664357017727969,82.1491738777638));
#339=CARTESIAN_POINT('',(-177.767731107566,-9.49878164838859,81.7112890932747));
#340=CARTESIAN_POINT('',(-176.740454062784,-18.8406296167511,80.4305909106788));
#341=CARTESIAN_POINT('',(-175.341928909232,-26.4726584992831,78.6767753118147));
#342=CARTESIAN_POINT('',(-173.906145745375,-32.4754573321118,76.8627534534522));
#343=CARTESIAN_POINT('',(-171.490606163681,-41.1990455762125,73.793595406384));
#344=CARTESIAN_POINT('',(-167.93811327041,-50.6943348935288,69.2206836562327));
#345=CARTESIAN_POINT('',(-163.070398607596,-60.6708196110781,62.7390070436882));
#346=CARTESIAN_POINT('',(-160.452146597243,-65.2784182220797,59.1565850522546));
#347=CARTESIAN_POINT('',(-159.102430216445,-67.5000000000001,57.2770687806912));
#348=CARTESIAN_POINT('',(-48.,-1.62947059091754E-14,37.2770687806912));
#349=CARTESIAN_POINT('',(-160.853493430204,64.5297529872766,37.2770687806912));
#350=CARTESIAN_POINT('',(-48.,-1.62947059091754E-14,-576.682519281218));
#351=CARTESIAN_POINT('',(178.,4.54369052670665E-14,-22.5076993952653));
#352=CARTESIAN_POINT('',(-159.102430216445,64.5000000000001,37.2770687806912));
#353=CARTESIAN_POINT('',(-159.102430216445,64.5297529872766,37.2770687806912));
#354=CARTESIAN_POINT('',(-2.80066511364167E-16,64.5295899972992,37.2755180346438));
#355=CARTESIAN_POINT('',(-159.102430216445,-64.5000000000001,37.2770687806912));
#356=CARTESIAN_POINT('',(-3.99404440071719E-16,-64.5297529872767,37.2770687806912));
#357=CARTESIAN_POINT('',(-3.98924479293772E-16,-64.529427900198,37.2739757837455));
#358=MECHANICAL_DESIGN_GEOMETRIC_PRESENTATION_REPRESENTATION('',(#185),
#359);
#359=(
GEOMETRIC_REPRESENTATION_CONTEXT(3)
GLOBAL_UNCERTAINTY_ASSIGNED_CONTEXT((#360))
GLOBAL_UNIT_ASSIGNED_CONTEXT((#363,#362,#361))
REPRESENTATION_CONTEXT('Part3','TOP_LEVEL_ASSEMBLY_PART')
);
#360=UNCERTAINTY_MEASURE_WITH_UNIT(LENGTH_MEASURE(0.005),#363,
'DISTANCE_ACCURACY_VALUE','Maximum Tolerance applied to model');
#361=(
NAMED_UNIT(*)
SI_UNIT($,.STERADIAN.)
SOLID_ANGLE_UNIT()
);
#362=(
NAMED_UNIT(*)
PLANE_ANGLE_UNIT()
SI_UNIT($,.RADIAN.)
);
#363=(
LENGTH_UNIT()
NAMED_UNIT(*)
SI_UNIT(.MILLI.,.METRE.)
);
#364=PRODUCT_DEFINITION_SHAPE('','',#365);
#365=PRODUCT_DEFINITION('','',#367,#366);
#366=PRODUCT_DEFINITION_CONTEXT('',#373,'design');
#367=PRODUCT_DEFINITION_FORMATION_WITH_SPECIFIED_SOURCE('','',#369,
 .NOT_KNOWN.);
#368=PRODUCT_RELATED_PRODUCT_CATEGORY('','',(#369));
#369=PRODUCT('Part3','Part3','Part3',(#371));
#370=PRODUCT_CATEGORY('','');
#371=PRODUCT_CONTEXT('',#373,'mechanical');
#372=APPLICATION_PROTOCOL_DEFINITION('international standard',
'automotive_design',2010,#373);
#373=APPLICATION_CONTEXT(
'core data for automotive mechanical design processes');
ENDSEC;
END-ISO-10303-21;
