ISO-10303-21;
HEADER;
/* Generated by software containing ST-Developer
 * from STEP Tools, Inc. (www.steptools.com) 
 */
/* OPTION: strings as raw bytes, not using required /X/ escapes */

FILE_DESCRIPTION(
/* description */ ('Unknown'),
/* implementation_level */ '2;1');

FILE_NAME(
/* name */ 'SNP 7135-03 AS2',
/* time_stamp */ '2023-10-27T10:53:36+02:00',
/* author */ ('Unknown'),
/* organization */ ('Unknown'),
/* preprocessor_version */ 'ST-DEVELOPER v18.102',
/* originating_system */ 'Solid Edge',
/* authorisation */ 'Unknown');

FILE_SCHEMA (('AUTOMOTIVE_DESIGN {1 0 10303 214 3 1 1}'));
ENDSEC;

DATA;
#10=PROPERTY_DEFINITION_REPRESENTATION(#14,#12);
#11=PROPERTY_DEFINITION_REPRESENTATION(#15,#13);
#12=REPRESENTATION('',(#16),#656);
#13=REPRESENTATION('',(#17),#656);
#14=PROPERTY_DEFINITION('pmi validation property','',#661);
#15=PROPERTY_DEFINITION('pmi validation property','',#661);
#16=VALUE_REPRESENTATION_ITEM('number of annotations',COUNT_MEASURE(0.));
#17=VALUE_REPRESENTATION_ITEM('number of views',COUNT_MEASURE(0.));
#18=SHAPE_REPRESENTATION_RELATIONSHIP('','',#463,#19);
#19=ADVANCED_BREP_SHAPE_REPRESENTATION('',(#461),#656);
#20=TOROIDAL_SURFACE('',#486,4.5,2.);
#21=CYLINDRICAL_SURFACE('',#482,6.5);
#22=CIRCLE('',#481,6.5);
#23=CIRCLE('',#483,6.5);
#24=CIRCLE('',#485,4.5);
#25=ORIENTED_EDGE('',*,*,#103,.T.);
#26=ORIENTED_EDGE('',*,*,#104,.T.);
#27=ORIENTED_EDGE('',*,*,#105,.T.);
#28=ORIENTED_EDGE('',*,*,#106,.T.);
#29=ORIENTED_EDGE('',*,*,#107,.T.);
#30=ORIENTED_EDGE('',*,*,#108,.F.);
#31=ORIENTED_EDGE('',*,*,#106,.F.);
#32=ORIENTED_EDGE('',*,*,#109,.T.);
#33=ORIENTED_EDGE('',*,*,#110,.T.);
#34=ORIENTED_EDGE('',*,*,#109,.F.);
#35=ORIENTED_EDGE('',*,*,#105,.F.);
#36=ORIENTED_EDGE('',*,*,#111,.T.);
#37=ORIENTED_EDGE('',*,*,#112,.T.);
#38=ORIENTED_EDGE('',*,*,#111,.F.);
#39=ORIENTED_EDGE('',*,*,#104,.F.);
#40=ORIENTED_EDGE('',*,*,#113,.T.);
#41=ORIENTED_EDGE('',*,*,#114,.T.);
#42=ORIENTED_EDGE('',*,*,#113,.F.);
#43=ORIENTED_EDGE('',*,*,#103,.F.);
#44=ORIENTED_EDGE('',*,*,#108,.T.);
#45=ORIENTED_EDGE('',*,*,#115,.T.);
#46=ORIENTED_EDGE('',*,*,#116,.T.);
#47=ORIENTED_EDGE('',*,*,#117,.T.);
#48=ORIENTED_EDGE('',*,*,#118,.T.);
#49=ORIENTED_EDGE('',*,*,#119,.T.);
#50=ORIENTED_EDGE('',*,*,#120,.F.);
#51=ORIENTED_EDGE('',*,*,#118,.F.);
#52=ORIENTED_EDGE('',*,*,#121,.T.);
#53=ORIENTED_EDGE('',*,*,#122,.T.);
#54=ORIENTED_EDGE('',*,*,#121,.F.);
#55=ORIENTED_EDGE('',*,*,#117,.F.);
#56=ORIENTED_EDGE('',*,*,#123,.T.);
#57=ORIENTED_EDGE('',*,*,#124,.T.);
#58=ORIENTED_EDGE('',*,*,#123,.F.);
#59=ORIENTED_EDGE('',*,*,#116,.F.);
#60=ORIENTED_EDGE('',*,*,#125,.T.);
#61=ORIENTED_EDGE('',*,*,#126,.T.);
#62=ORIENTED_EDGE('',*,*,#125,.F.);
#63=ORIENTED_EDGE('',*,*,#115,.F.);
#64=ORIENTED_EDGE('',*,*,#120,.T.);
#65=ORIENTED_EDGE('',*,*,#127,.T.);
#66=ORIENTED_EDGE('',*,*,#128,.T.);
#67=ORIENTED_EDGE('',*,*,#129,.T.);
#68=ORIENTED_EDGE('',*,*,#130,.T.);
#69=ORIENTED_EDGE('',*,*,#126,.F.);
#70=ORIENTED_EDGE('',*,*,#119,.F.);
#71=ORIENTED_EDGE('',*,*,#122,.F.);
#72=ORIENTED_EDGE('',*,*,#124,.F.);
#73=ORIENTED_EDGE('',*,*,#131,.F.);
#74=ORIENTED_EDGE('',*,*,#132,.F.);
#75=ORIENTED_EDGE('',*,*,#133,.F.);
#76=ORIENTED_EDGE('',*,*,#134,.F.);
#77=ORIENTED_EDGE('',*,*,#112,.F.);
#78=ORIENTED_EDGE('',*,*,#114,.F.);
#79=ORIENTED_EDGE('',*,*,#107,.F.);
#80=ORIENTED_EDGE('',*,*,#110,.F.);
#81=ORIENTED_EDGE('',*,*,#130,.F.);
#82=ORIENTED_EDGE('',*,*,#135,.F.);
#83=ORIENTED_EDGE('',*,*,#132,.T.);
#84=ORIENTED_EDGE('',*,*,#136,.T.);
#85=ORIENTED_EDGE('',*,*,#129,.F.);
#86=ORIENTED_EDGE('',*,*,#137,.F.);
#87=ORIENTED_EDGE('',*,*,#133,.T.);
#88=ORIENTED_EDGE('',*,*,#135,.T.);
#89=ORIENTED_EDGE('',*,*,#127,.F.);
#90=ORIENTED_EDGE('',*,*,#136,.F.);
#91=ORIENTED_EDGE('',*,*,#131,.T.);
#92=ORIENTED_EDGE('',*,*,#138,.T.);
#93=ORIENTED_EDGE('',*,*,#139,.T.);
#94=ORIENTED_EDGE('',*,*,#134,.T.);
#95=ORIENTED_EDGE('',*,*,#137,.T.);
#96=ORIENTED_EDGE('',*,*,#128,.F.);
#97=ORIENTED_EDGE('',*,*,#138,.F.);
#98=ORIENTED_EDGE('',*,*,#140,.T.);
#99=ORIENTED_EDGE('',*,*,#139,.F.);
#100=ORIENTED_EDGE('',*,*,#141,.T.);
#101=ORIENTED_EDGE('',*,*,#141,.F.);
#102=ORIENTED_EDGE('',*,*,#140,.F.);
#103=EDGE_CURVE('',#142,#143,#169,.T.);
#104=EDGE_CURVE('',#143,#144,#170,.T.);
#105=EDGE_CURVE('',#144,#145,#171,.T.);
#106=EDGE_CURVE('',#145,#142,#172,.T.);
#107=EDGE_CURVE('',#146,#147,#173,.T.);
#108=EDGE_CURVE('',#142,#147,#174,.T.);
#109=EDGE_CURVE('',#145,#146,#175,.T.);
#110=EDGE_CURVE('',#148,#146,#176,.T.);
#111=EDGE_CURVE('',#144,#148,#177,.T.);
#112=EDGE_CURVE('',#149,#148,#178,.T.);
#113=EDGE_CURVE('',#143,#149,#179,.T.);
#114=EDGE_CURVE('',#147,#149,#180,.T.);
#115=EDGE_CURVE('',#150,#151,#181,.T.);
#116=EDGE_CURVE('',#151,#152,#182,.T.);
#117=EDGE_CURVE('',#152,#153,#183,.T.);
#118=EDGE_CURVE('',#153,#150,#184,.T.);
#119=EDGE_CURVE('',#154,#155,#185,.T.);
#120=EDGE_CURVE('',#150,#155,#186,.T.);
#121=EDGE_CURVE('',#153,#154,#187,.T.);
#122=EDGE_CURVE('',#156,#154,#188,.T.);
#123=EDGE_CURVE('',#152,#156,#189,.T.);
#124=EDGE_CURVE('',#157,#156,#190,.T.);
#125=EDGE_CURVE('',#151,#157,#191,.T.);
#126=EDGE_CURVE('',#155,#157,#192,.T.);
#127=EDGE_CURVE('',#158,#159,#193,.T.);
#128=EDGE_CURVE('',#159,#160,#194,.T.);
#129=EDGE_CURVE('',#160,#161,#195,.T.);
#130=EDGE_CURVE('',#161,#158,#196,.T.);
#131=EDGE_CURVE('',#162,#163,#197,.T.);
#132=EDGE_CURVE('',#164,#162,#198,.T.);
#133=EDGE_CURVE('',#165,#164,#199,.T.);
#134=EDGE_CURVE('',#163,#165,#200,.T.);
#135=EDGE_CURVE('',#164,#161,#201,.T.);
#136=EDGE_CURVE('',#162,#158,#202,.T.);
#137=EDGE_CURVE('',#165,#160,#203,.T.);
#138=EDGE_CURVE('',#163,#159,#204,.T.);
#139=EDGE_CURVE('',#166,#166,#22,.T.);
#140=EDGE_CURVE('',#167,#167,#23,.T.);
#141=EDGE_CURVE('',#168,#168,#24,.F.);
#142=VERTEX_POINT('',#572);
#143=VERTEX_POINT('',#573);
#144=VERTEX_POINT('',#575);
#145=VERTEX_POINT('',#577);
#146=VERTEX_POINT('',#581);
#147=VERTEX_POINT('',#582);
#148=VERTEX_POINT('',#587);
#149=VERTEX_POINT('',#591);
#150=VERTEX_POINT('',#597);
#151=VERTEX_POINT('',#598);
#152=VERTEX_POINT('',#600);
#153=VERTEX_POINT('',#602);
#154=VERTEX_POINT('',#606);
#155=VERTEX_POINT('',#607);
#156=VERTEX_POINT('',#612);
#157=VERTEX_POINT('',#616);
#158=VERTEX_POINT('',#622);
#159=VERTEX_POINT('',#623);
#160=VERTEX_POINT('',#625);
#161=VERTEX_POINT('',#627);
#162=VERTEX_POINT('',#631);
#163=VERTEX_POINT('',#632);
#164=VERTEX_POINT('',#634);
#165=VERTEX_POINT('',#636);
#166=VERTEX_POINT('',#647);
#167=VERTEX_POINT('',#650);
#168=VERTEX_POINT('',#653);
#169=LINE('',#571,#205);
#170=LINE('',#574,#206);
#171=LINE('',#576,#207);
#172=LINE('',#578,#208);
#173=LINE('',#580,#209);
#174=LINE('',#583,#210);
#175=LINE('',#584,#211);
#176=LINE('',#586,#212);
#177=LINE('',#588,#213);
#178=LINE('',#590,#214);
#179=LINE('',#592,#215);
#180=LINE('',#594,#216);
#181=LINE('',#596,#217);
#182=LINE('',#599,#218);
#183=LINE('',#601,#219);
#184=LINE('',#603,#220);
#185=LINE('',#605,#221);
#186=LINE('',#608,#222);
#187=LINE('',#609,#223);
#188=LINE('',#611,#224);
#189=LINE('',#613,#225);
#190=LINE('',#615,#226);
#191=LINE('',#617,#227);
#192=LINE('',#619,#228);
#193=LINE('',#621,#229);
#194=LINE('',#624,#230);
#195=LINE('',#626,#231);
#196=LINE('',#628,#232);
#197=LINE('',#630,#233);
#198=LINE('',#633,#234);
#199=LINE('',#635,#235);
#200=LINE('',#637,#236);
#201=LINE('',#639,#237);
#202=LINE('',#640,#238);
#203=LINE('',#642,#239);
#204=LINE('',#644,#240);
#205=VECTOR('',#491,1000.);
#206=VECTOR('',#492,1000.);
#207=VECTOR('',#493,1000.);
#208=VECTOR('',#494,1000.);
#209=VECTOR('',#497,1000.);
#210=VECTOR('',#498,1000.);
#211=VECTOR('',#499,1000.);
#212=VECTOR('',#502,1000.);
#213=VECTOR('',#503,1000.);
#214=VECTOR('',#506,1000.);
#215=VECTOR('',#507,1000.);
#216=VECTOR('',#510,1000.);
#217=VECTOR('',#513,1000.);
#218=VECTOR('',#514,1000.);
#219=VECTOR('',#515,1000.);
#220=VECTOR('',#516,1000.);
#221=VECTOR('',#519,1000.);
#222=VECTOR('',#520,1000.);
#223=VECTOR('',#521,1000.);
#224=VECTOR('',#524,1000.);
#225=VECTOR('',#525,1000.);
#226=VECTOR('',#528,1000.);
#227=VECTOR('',#529,1000.);
#228=VECTOR('',#532,1000.);
#229=VECTOR('',#535,1000.);
#230=VECTOR('',#536,1000.);
#231=VECTOR('',#537,1000.);
#232=VECTOR('',#538,1000.);
#233=VECTOR('',#541,1000.);
#234=VECTOR('',#542,1000.);
#235=VECTOR('',#543,1000.);
#236=VECTOR('',#544,1000.);
#237=VECTOR('',#547,1000.);
#238=VECTOR('',#548,1000.);
#239=VECTOR('',#551,1000.);
#240=VECTOR('',#554,1000.);
#241=EDGE_LOOP('',(#25,#26,#27,#28));
#242=EDGE_LOOP('',(#29,#30,#31,#32));
#243=EDGE_LOOP('',(#33,#34,#35,#36));
#244=EDGE_LOOP('',(#37,#38,#39,#40));
#245=EDGE_LOOP('',(#41,#42,#43,#44));
#246=EDGE_LOOP('',(#45,#46,#47,#48));
#247=EDGE_LOOP('',(#49,#50,#51,#52));
#248=EDGE_LOOP('',(#53,#54,#55,#56));
#249=EDGE_LOOP('',(#57,#58,#59,#60));
#250=EDGE_LOOP('',(#61,#62,#63,#64));
#251=EDGE_LOOP('',(#65,#66,#67,#68));
#252=EDGE_LOOP('',(#69,#70,#71,#72));
#253=EDGE_LOOP('',(#73,#74,#75,#76));
#254=EDGE_LOOP('',(#77,#78,#79,#80));
#255=EDGE_LOOP('',(#81,#82,#83,#84));
#256=EDGE_LOOP('',(#85,#86,#87,#88));
#257=EDGE_LOOP('',(#89,#90,#91,#92));
#258=EDGE_LOOP('',(#93));
#259=EDGE_LOOP('',(#94,#95,#96,#97));
#260=EDGE_LOOP('',(#98));
#261=EDGE_LOOP('',(#99));
#262=EDGE_LOOP('',(#100));
#263=EDGE_LOOP('',(#101));
#264=EDGE_LOOP('',(#102));
#265=FACE_BOUND('',#241,.T.);
#266=FACE_BOUND('',#242,.T.);
#267=FACE_BOUND('',#243,.T.);
#268=FACE_BOUND('',#244,.T.);
#269=FACE_BOUND('',#245,.T.);
#270=FACE_BOUND('',#246,.T.);
#271=FACE_BOUND('',#247,.T.);
#272=FACE_BOUND('',#248,.T.);
#273=FACE_BOUND('',#249,.T.);
#274=FACE_BOUND('',#250,.T.);
#275=FACE_BOUND('',#251,.T.);
#276=FACE_BOUND('',#252,.T.);
#277=FACE_BOUND('',#253,.T.);
#278=FACE_BOUND('',#254,.T.);
#279=FACE_BOUND('',#255,.T.);
#280=FACE_BOUND('',#256,.T.);
#281=FACE_BOUND('',#257,.T.);
#282=FACE_BOUND('',#258,.T.);
#283=FACE_BOUND('',#259,.T.);
#284=FACE_BOUND('',#260,.T.);
#285=FACE_BOUND('',#261,.T.);
#286=FACE_BOUND('',#262,.T.);
#287=FACE_BOUND('',#263,.T.);
#288=FACE_BOUND('',#264,.T.);
#289=PLANE('',#465);
#290=PLANE('',#466);
#291=PLANE('',#467);
#292=PLANE('',#468);
#293=PLANE('',#469);
#294=PLANE('',#470);
#295=PLANE('',#471);
#296=PLANE('',#472);
#297=PLANE('',#473);
#298=PLANE('',#474);
#299=PLANE('',#475);
#300=PLANE('',#476);
#301=PLANE('',#477);
#302=PLANE('',#478);
#303=PLANE('',#479);
#304=PLANE('',#480);
#305=PLANE('',#484);
#306=STYLED_ITEM('',(#325),#441);
#307=STYLED_ITEM('',(#326),#442);
#308=STYLED_ITEM('',(#327),#443);
#309=STYLED_ITEM('',(#328),#444);
#310=STYLED_ITEM('',(#329),#445);
#311=STYLED_ITEM('',(#330),#446);
#312=STYLED_ITEM('',(#331),#447);
#313=STYLED_ITEM('',(#332),#448);
#314=STYLED_ITEM('',(#333),#449);
#315=STYLED_ITEM('',(#334),#450);
#316=STYLED_ITEM('',(#335),#451);
#317=STYLED_ITEM('',(#336),#452);
#318=STYLED_ITEM('',(#337),#453);
#319=STYLED_ITEM('',(#338),#454);
#320=STYLED_ITEM('',(#339),#455);
#321=STYLED_ITEM('',(#340),#456);
#322=STYLED_ITEM('',(#341),#457);
#323=STYLED_ITEM('',(#342),#458);
#324=STYLED_ITEM('',(#343),#459);
#325=PRESENTATION_STYLE_ASSIGNMENT((#344));
#326=PRESENTATION_STYLE_ASSIGNMENT((#345));
#327=PRESENTATION_STYLE_ASSIGNMENT((#346));
#328=PRESENTATION_STYLE_ASSIGNMENT((#347));
#329=PRESENTATION_STYLE_ASSIGNMENT((#348));
#330=PRESENTATION_STYLE_ASSIGNMENT((#349));
#331=PRESENTATION_STYLE_ASSIGNMENT((#350));
#332=PRESENTATION_STYLE_ASSIGNMENT((#351));
#333=PRESENTATION_STYLE_ASSIGNMENT((#352));
#334=PRESENTATION_STYLE_ASSIGNMENT((#353));
#335=PRESENTATION_STYLE_ASSIGNMENT((#354));
#336=PRESENTATION_STYLE_ASSIGNMENT((#355));
#337=PRESENTATION_STYLE_ASSIGNMENT((#356));
#338=PRESENTATION_STYLE_ASSIGNMENT((#357));
#339=PRESENTATION_STYLE_ASSIGNMENT((#358));
#340=PRESENTATION_STYLE_ASSIGNMENT((#359));
#341=PRESENTATION_STYLE_ASSIGNMENT((#360));
#342=PRESENTATION_STYLE_ASSIGNMENT((#361));
#343=PRESENTATION_STYLE_ASSIGNMENT((#362));
#344=SURFACE_STYLE_USAGE(.BOTH.,#363);
#345=SURFACE_STYLE_USAGE(.BOTH.,#364);
#346=SURFACE_STYLE_USAGE(.BOTH.,#365);
#347=SURFACE_STYLE_USAGE(.BOTH.,#366);
#348=SURFACE_STYLE_USAGE(.BOTH.,#367);
#349=SURFACE_STYLE_USAGE(.BOTH.,#368);
#350=SURFACE_STYLE_USAGE(.BOTH.,#369);
#351=SURFACE_STYLE_USAGE(.BOTH.,#370);
#352=SURFACE_STYLE_USAGE(.BOTH.,#371);
#353=SURFACE_STYLE_USAGE(.BOTH.,#372);
#354=SURFACE_STYLE_USAGE(.BOTH.,#373);
#355=SURFACE_STYLE_USAGE(.BOTH.,#374);
#356=SURFACE_STYLE_USAGE(.BOTH.,#375);
#357=SURFACE_STYLE_USAGE(.BOTH.,#376);
#358=SURFACE_STYLE_USAGE(.BOTH.,#377);
#359=SURFACE_STYLE_USAGE(.BOTH.,#378);
#360=SURFACE_STYLE_USAGE(.BOTH.,#379);
#361=SURFACE_STYLE_USAGE(.BOTH.,#380);
#362=SURFACE_STYLE_USAGE(.BOTH.,#381);
#363=SURFACE_SIDE_STYLE('',(#382));
#364=SURFACE_SIDE_STYLE('',(#383));
#365=SURFACE_SIDE_STYLE('',(#384));
#366=SURFACE_SIDE_STYLE('',(#385));
#367=SURFACE_SIDE_STYLE('',(#386));
#368=SURFACE_SIDE_STYLE('',(#387));
#369=SURFACE_SIDE_STYLE('',(#388));
#370=SURFACE_SIDE_STYLE('',(#389));
#371=SURFACE_SIDE_STYLE('',(#390));
#372=SURFACE_SIDE_STYLE('',(#391));
#373=SURFACE_SIDE_STYLE('',(#392));
#374=SURFACE_SIDE_STYLE('',(#393));
#375=SURFACE_SIDE_STYLE('',(#394));
#376=SURFACE_SIDE_STYLE('',(#395));
#377=SURFACE_SIDE_STYLE('',(#396));
#378=SURFACE_SIDE_STYLE('',(#397));
#379=SURFACE_SIDE_STYLE('',(#398));
#380=SURFACE_SIDE_STYLE('',(#399));
#381=SURFACE_SIDE_STYLE('',(#400));
#382=SURFACE_STYLE_FILL_AREA(#401);
#383=SURFACE_STYLE_FILL_AREA(#402);
#384=SURFACE_STYLE_FILL_AREA(#403);
#385=SURFACE_STYLE_FILL_AREA(#404);
#386=SURFACE_STYLE_FILL_AREA(#405);
#387=SURFACE_STYLE_FILL_AREA(#406);
#388=SURFACE_STYLE_FILL_AREA(#407);
#389=SURFACE_STYLE_FILL_AREA(#408);
#390=SURFACE_STYLE_FILL_AREA(#409);
#391=SURFACE_STYLE_FILL_AREA(#410);
#392=SURFACE_STYLE_FILL_AREA(#411);
#393=SURFACE_STYLE_FILL_AREA(#412);
#394=SURFACE_STYLE_FILL_AREA(#413);
#395=SURFACE_STYLE_FILL_AREA(#414);
#396=SURFACE_STYLE_FILL_AREA(#415);
#397=SURFACE_STYLE_FILL_AREA(#416);
#398=SURFACE_STYLE_FILL_AREA(#417);
#399=SURFACE_STYLE_FILL_AREA(#418);
#400=SURFACE_STYLE_FILL_AREA(#419);
#401=FILL_AREA_STYLE('',(#420));
#402=FILL_AREA_STYLE('',(#421));
#403=FILL_AREA_STYLE('',(#422));
#404=FILL_AREA_STYLE('',(#423));
#405=FILL_AREA_STYLE('',(#424));
#406=FILL_AREA_STYLE('',(#425));
#407=FILL_AREA_STYLE('',(#426));
#408=FILL_AREA_STYLE('',(#427));
#409=FILL_AREA_STYLE('',(#428));
#410=FILL_AREA_STYLE('',(#429));
#411=FILL_AREA_STYLE('',(#430));
#412=FILL_AREA_STYLE('',(#431));
#413=FILL_AREA_STYLE('',(#432));
#414=FILL_AREA_STYLE('',(#433));
#415=FILL_AREA_STYLE('',(#434));
#416=FILL_AREA_STYLE('',(#435));
#417=FILL_AREA_STYLE('',(#436));
#418=FILL_AREA_STYLE('',(#437));
#419=FILL_AREA_STYLE('',(#438));
#420=FILL_AREA_STYLE_COLOUR('',#439);
#421=FILL_AREA_STYLE_COLOUR('',#439);
#422=FILL_AREA_STYLE_COLOUR('',#439);
#423=FILL_AREA_STYLE_COLOUR('',#439);
#424=FILL_AREA_STYLE_COLOUR('',#439);
#425=FILL_AREA_STYLE_COLOUR('',#439);
#426=FILL_AREA_STYLE_COLOUR('',#439);
#427=FILL_AREA_STYLE_COLOUR('',#439);
#428=FILL_AREA_STYLE_COLOUR('',#439);
#429=FILL_AREA_STYLE_COLOUR('',#439);
#430=FILL_AREA_STYLE_COLOUR('',#439);
#431=FILL_AREA_STYLE_COLOUR('',#439);
#432=FILL_AREA_STYLE_COLOUR('',#439);
#433=FILL_AREA_STYLE_COLOUR('',#439);
#434=FILL_AREA_STYLE_COLOUR('',#439);
#435=FILL_AREA_STYLE_COLOUR('',#440);
#436=FILL_AREA_STYLE_COLOUR('',#440);
#437=FILL_AREA_STYLE_COLOUR('',#440);
#438=FILL_AREA_STYLE_COLOUR('',#440);
#439=COLOUR_RGB('',0.564705908298492,0.627451002597809,0.627451002597809);
#440=COLOUR_RGB('',0.506983280181885,0.531564235687256,0.550000011920929);
#441=ADVANCED_FACE('',(#265),#289,.T.);
#442=ADVANCED_FACE('',(#266),#290,.F.);
#443=ADVANCED_FACE('',(#267),#291,.F.);
#444=ADVANCED_FACE('',(#268),#292,.F.);
#445=ADVANCED_FACE('',(#269),#293,.F.);
#446=ADVANCED_FACE('',(#270),#294,.T.);
#447=ADVANCED_FACE('',(#271),#295,.F.);
#448=ADVANCED_FACE('',(#272),#296,.F.);
#449=ADVANCED_FACE('',(#273),#297,.F.);
#450=ADVANCED_FACE('',(#274),#298,.F.);
#451=ADVANCED_FACE('',(#275,#276),#299,.T.);
#452=ADVANCED_FACE('',(#277,#278),#300,.F.);
#453=ADVANCED_FACE('',(#279),#301,.T.);
#454=ADVANCED_FACE('',(#280),#302,.T.);
#455=ADVANCED_FACE('',(#281),#303,.T.);
#456=ADVANCED_FACE('',(#282,#283),#304,.T.);
#457=ADVANCED_FACE('',(#284,#285),#21,.T.);
#458=ADVANCED_FACE('',(#286),#305,.F.);
#459=ADVANCED_FACE('',(#287,#288),#20,.T.);
#460=CLOSED_SHELL('',(#441,#442,#443,#444,#445,#446,#447,#448,#449,#450,
#451,#452,#453,#454,#455,#456,#457,#458,#459));
#461=MANIFOLD_SOLID_BREP('',#460);
#462=SHAPE_DEFINITION_REPRESENTATION(#661,#463);
#463=SHAPE_REPRESENTATION('SNP 7135 W -03AS',(#464),#656);
#464=AXIS2_PLACEMENT_3D('',#569,#487,#488);
#465=AXIS2_PLACEMENT_3D('',#570,#489,#490);
#466=AXIS2_PLACEMENT_3D('',#579,#495,#496);
#467=AXIS2_PLACEMENT_3D('',#585,#500,#501);
#468=AXIS2_PLACEMENT_3D('',#589,#504,#505);
#469=AXIS2_PLACEMENT_3D('',#593,#508,#509);
#470=AXIS2_PLACEMENT_3D('',#595,#511,#512);
#471=AXIS2_PLACEMENT_3D('',#604,#517,#518);
#472=AXIS2_PLACEMENT_3D('',#610,#522,#523);
#473=AXIS2_PLACEMENT_3D('',#614,#526,#527);
#474=AXIS2_PLACEMENT_3D('',#618,#530,#531);
#475=AXIS2_PLACEMENT_3D('',#620,#533,#534);
#476=AXIS2_PLACEMENT_3D('',#629,#539,#540);
#477=AXIS2_PLACEMENT_3D('',#638,#545,#546);
#478=AXIS2_PLACEMENT_3D('',#641,#549,#550);
#479=AXIS2_PLACEMENT_3D('',#643,#552,#553);
#480=AXIS2_PLACEMENT_3D('',#645,#555,#556);
#481=AXIS2_PLACEMENT_3D('',#646,#557,#558);
#482=AXIS2_PLACEMENT_3D('',#648,#559,#560);
#483=AXIS2_PLACEMENT_3D('',#649,#561,#562);
#484=AXIS2_PLACEMENT_3D('',#651,#563,#564);
#485=AXIS2_PLACEMENT_3D('',#652,#565,#566);
#486=AXIS2_PLACEMENT_3D('',#654,#567,#568);
#487=DIRECTION('',(0.,0.,1.));
#488=DIRECTION('',(1.,0.,0.));
#489=DIRECTION('',(0.,1.,0.));
#490=DIRECTION('',(0.,0.,1.));
#491=DIRECTION('',(0.,0.,-1.));
#492=DIRECTION('',(-1.,0.,1.30104260698261E-16));
#493=DIRECTION('',(0.,0.,1.));
#494=DIRECTION('',(1.,0.,-1.30104260698261E-16));
#495=DIRECTION('',(1.30104260698261E-16,0.,1.));
#496=DIRECTION('',(1.,0.,-1.30104260698261E-16));
#497=DIRECTION('',(1.,0.,-1.30104260698261E-16));
#498=DIRECTION('',(0.,1.,0.));
#499=DIRECTION('',(0.,1.,0.));
#500=DIRECTION('',(-1.,0.,0.));
#501=DIRECTION('',(0.,0.,1.));
#502=DIRECTION('',(0.,0.,1.));
#503=DIRECTION('',(0.,1.,0.));
#504=DIRECTION('',(-1.30104260698261E-16,0.,-1.));
#505=DIRECTION('',(-1.,0.,1.30104260698261E-16));
#506=DIRECTION('',(-1.,0.,1.30104260698261E-16));
#507=DIRECTION('',(0.,1.,0.));
#508=DIRECTION('',(1.,0.,0.));
#509=DIRECTION('',(0.,0.,-1.));
#510=DIRECTION('',(0.,0.,-1.));
#511=DIRECTION('',(0.,-1.,0.));
#512=DIRECTION('',(0.,0.,-1.));
#513=DIRECTION('',(0.,0.,-1.));
#514=DIRECTION('',(1.,0.,0.));
#515=DIRECTION('',(0.,0.,1.));
#516=DIRECTION('',(-1.,0.,0.));
#517=DIRECTION('',(0.,0.,-1.));
#518=DIRECTION('',(-1.,0.,0.));
#519=DIRECTION('',(-1.,0.,0.));
#520=DIRECTION('',(0.,1.,0.));
#521=DIRECTION('',(0.,1.,0.));
#522=DIRECTION('',(-1.,0.,0.));
#523=DIRECTION('',(0.,0.,1.));
#524=DIRECTION('',(0.,0.,1.));
#525=DIRECTION('',(0.,1.,0.));
#526=DIRECTION('',(0.,0.,1.));
#527=DIRECTION('',(1.,0.,0.));
#528=DIRECTION('',(1.,0.,0.));
#529=DIRECTION('',(0.,1.,0.));
#530=DIRECTION('',(1.,0.,0.));
#531=DIRECTION('',(0.,0.,-1.));
#532=DIRECTION('',(0.,0.,-1.));
#533=DIRECTION('',(0.,-1.,0.));
#534=DIRECTION('',(0.,0.,-1.));
#535=DIRECTION('',(0.,0.,-1.));
#536=DIRECTION('',(1.,0.,0.));
#537=DIRECTION('',(0.,0.,1.));
#538=DIRECTION('',(-1.,0.,0.));
#539=DIRECTION('',(0.,-1.,0.));
#540=DIRECTION('',(0.,0.,-1.));
#541=DIRECTION('',(0.,0.,-1.));
#542=DIRECTION('',(-1.,0.,0.));
#543=DIRECTION('',(0.,0.,1.));
#544=DIRECTION('',(1.,0.,0.));
#545=DIRECTION('',(0.,0.,1.));
#546=DIRECTION('',(1.,0.,0.));
#547=DIRECTION('',(0.,-1.,0.));
#548=DIRECTION('',(0.,-1.,0.));
#549=DIRECTION('',(1.,0.,0.));
#550=DIRECTION('',(0.,0.,-1.));
#551=DIRECTION('',(0.,-1.,0.));
#552=DIRECTION('',(-1.,0.,0.));
#553=DIRECTION('',(0.,0.,1.));
#554=DIRECTION('',(0.,-1.,0.));
#555=DIRECTION('',(0.,0.,-1.));
#556=DIRECTION('',(-1.,0.,0.));
#557=DIRECTION('',(0.,0.,1.));
#558=DIRECTION('',(-1.,0.,0.));
#559=DIRECTION('',(0.,0.,1.));
#560=DIRECTION('',(1.,0.,0.));
#561=DIRECTION('',(0.,0.,1.));
#562=DIRECTION('',(1.,0.,0.));
#563=DIRECTION('',(0.,0.,1.));
#564=DIRECTION('',(1.,0.,0.));
#565=DIRECTION('',(0.,0.,1.));
#566=DIRECTION('',(1.,0.,0.));
#567=DIRECTION('',(0.,0.,1.));
#568=DIRECTION('',(1.,0.,0.));
#569=CARTESIAN_POINT('',(0.,0.,0.));
#570=CARTESIAN_POINT('',(0.,44.,0.));
#571=CARTESIAN_POINT('',(160.,44.,85.4999999999999));
#572=CARTESIAN_POINT('',(160.,44.,85.4999999999999));
#573=CARTESIAN_POINT('',(160.,44.,-85.5));
#574=CARTESIAN_POINT('',(160.,44.,-85.5));
#575=CARTESIAN_POINT('',(-160.,44.,-85.5));
#576=CARTESIAN_POINT('',(-160.,44.,-85.4999999999999));
#577=CARTESIAN_POINT('',(-160.,44.,85.4999999999999));
#578=CARTESIAN_POINT('',(-160.,44.,85.4999999999999));
#579=CARTESIAN_POINT('',(-160.,44.,85.4999999999999));
#580=CARTESIAN_POINT('',(-160.,45.,85.4999999999999));
#581=CARTESIAN_POINT('',(-160.,45.,85.4999999999999));
#582=CARTESIAN_POINT('',(160.,45.,85.4999999999999));
#583=CARTESIAN_POINT('',(160.,44.,85.4999999999999));
#584=CARTESIAN_POINT('',(-160.,44.,85.4999999999999));
#585=CARTESIAN_POINT('',(-160.,44.,-85.4999999999999));
#586=CARTESIAN_POINT('',(-160.,45.,-85.4999999999999));
#587=CARTESIAN_POINT('',(-160.,45.,-85.5));
#588=CARTESIAN_POINT('',(-160.,44.,-85.5));
#589=CARTESIAN_POINT('',(160.,44.,-85.5));
#590=CARTESIAN_POINT('',(160.,45.,-85.5));
#591=CARTESIAN_POINT('',(160.,45.,-85.5));
#592=CARTESIAN_POINT('',(160.,44.,-85.5));
#593=CARTESIAN_POINT('',(160.,44.,85.4999999999999));
#594=CARTESIAN_POINT('',(160.,45.,85.4999999999999));
#595=CARTESIAN_POINT('',(0.,-10.,0.));
#596=CARTESIAN_POINT('',(-125.,-10.,71.75));
#597=CARTESIAN_POINT('',(-125.,-10.,71.75));
#598=CARTESIAN_POINT('',(-125.,-10.,-71.75));
#599=CARTESIAN_POINT('',(-125.,-10.,-71.75));
#600=CARTESIAN_POINT('',(125.,-10.,-71.75));
#601=CARTESIAN_POINT('',(125.,-10.,-71.75));
#602=CARTESIAN_POINT('',(125.,-10.,71.75));
#603=CARTESIAN_POINT('',(125.,-10.,71.75));
#604=CARTESIAN_POINT('',(125.,-10.,71.75));
#605=CARTESIAN_POINT('',(125.,0.,71.75));
#606=CARTESIAN_POINT('',(125.,0.,71.75));
#607=CARTESIAN_POINT('',(-125.,0.,71.75));
#608=CARTESIAN_POINT('',(-125.,-10.,71.75));
#609=CARTESIAN_POINT('',(125.,-10.,71.75));
#610=CARTESIAN_POINT('',(125.,-10.,-71.75));
#611=CARTESIAN_POINT('',(125.,0.,-71.75));
#612=CARTESIAN_POINT('',(125.,0.,-71.75));
#613=CARTESIAN_POINT('',(125.,-10.,-71.75));
#614=CARTESIAN_POINT('',(-125.,-10.,-71.75));
#615=CARTESIAN_POINT('',(-125.,0.,-71.75));
#616=CARTESIAN_POINT('',(-125.,0.,-71.75));
#617=CARTESIAN_POINT('',(-125.,-10.,-71.75));
#618=CARTESIAN_POINT('',(-125.,-10.,71.75));
#619=CARTESIAN_POINT('',(-125.,0.,71.75));
#620=CARTESIAN_POINT('',(0.,0.,0.));
#621=CARTESIAN_POINT('',(-168.,0.,93.5));
#622=CARTESIAN_POINT('',(-168.,0.,93.5));
#623=CARTESIAN_POINT('',(-168.,0.,-93.5));
#624=CARTESIAN_POINT('',(-168.,0.,-93.5));
#625=CARTESIAN_POINT('',(168.,0.,-93.5));
#626=CARTESIAN_POINT('',(168.,0.,-93.5));
#627=CARTESIAN_POINT('',(168.,0.,93.5));
#628=CARTESIAN_POINT('',(168.,0.,93.5));
#629=CARTESIAN_POINT('',(0.,45.,0.));
#630=CARTESIAN_POINT('',(-168.,45.,93.5));
#631=CARTESIAN_POINT('',(-168.,45.,93.5));
#632=CARTESIAN_POINT('',(-168.,45.,-93.5));
#633=CARTESIAN_POINT('',(168.,45.,93.5));
#634=CARTESIAN_POINT('',(168.,45.,93.5));
#635=CARTESIAN_POINT('',(168.,45.,-93.5));
#636=CARTESIAN_POINT('',(168.,45.,-93.5));
#637=CARTESIAN_POINT('',(-168.,45.,-93.5));
#638=CARTESIAN_POINT('',(168.,45.,93.5));
#639=CARTESIAN_POINT('',(168.,45.,93.5));
#640=CARTESIAN_POINT('',(-168.,45.,93.5));
#641=CARTESIAN_POINT('',(168.,45.,-93.5));
#642=CARTESIAN_POINT('',(168.,45.,-93.5));
#643=CARTESIAN_POINT('',(-168.,45.,93.5));
#644=CARTESIAN_POINT('',(-168.,45.,-93.5));
#645=CARTESIAN_POINT('',(-168.,45.,-93.5));
#646=CARTESIAN_POINT('',(0.,22.5,-93.5));
#647=CARTESIAN_POINT('',(-6.5,22.5,-93.5));
#648=CARTESIAN_POINT('',(0.,22.5,-99.));
#649=CARTESIAN_POINT('',(0.,22.5,-97.));
#650=CARTESIAN_POINT('',(6.5,22.5,-97.));
#651=CARTESIAN_POINT('',(0.,22.5,-99.));
#652=CARTESIAN_POINT('',(0.,22.5,-99.));
#653=CARTESIAN_POINT('',(4.5,22.5,-99.));
#654=CARTESIAN_POINT('',(0.,22.5,-97.));
#655=MECHANICAL_DESIGN_GEOMETRIC_PRESENTATION_REPRESENTATION('',(#306,#307,
#308,#309,#310,#311,#312,#313,#314,#315,#316,#317,#318,#319,#320,#321,#322,
#323,#324),#656);
#656=(
GEOMETRIC_REPRESENTATION_CONTEXT(3)
GLOBAL_UNCERTAINTY_ASSIGNED_CONTEXT((#657))
GLOBAL_UNIT_ASSIGNED_CONTEXT((#660,#659,#658))
REPRESENTATION_CONTEXT('SNP 7135 W -03AS','TOP_LEVEL_ASSEMBLY_PART')
);
#657=UNCERTAINTY_MEASURE_WITH_UNIT(LENGTH_MEASURE(0.005),#660,
'DISTANCE_ACCURACY_VALUE','Maximum Tolerance applied to model');
#658=(
NAMED_UNIT(*)
SI_UNIT($,.STERADIAN.)
SOLID_ANGLE_UNIT()
);
#659=(
NAMED_UNIT(*)
PLANE_ANGLE_UNIT()
SI_UNIT($,.RADIAN.)
);
#660=(
LENGTH_UNIT()
NAMED_UNIT(*)
SI_UNIT(.MILLI.,.METRE.)
);
#661=PRODUCT_DEFINITION_SHAPE('','',#662);
#662=PRODUCT_DEFINITION('','',#664,#663);
#663=PRODUCT_DEFINITION_CONTEXT('',#670,'design');
#664=PRODUCT_DEFINITION_FORMATION_WITH_SPECIFIED_SOURCE('','',#666,
 .NOT_KNOWN.);
#665=PRODUCT_RELATED_PRODUCT_CATEGORY('','',(#666));
#666=PRODUCT('SNP 7135 W -03AS','SNP 7135 W -03AS','SNP 7135 W -03AS',(#668));
#667=PRODUCT_CATEGORY('','');
#668=PRODUCT_CONTEXT('',#670,'mechanical');
#669=APPLICATION_PROTOCOL_DEFINITION('international standard',
'automotive_design',2010,#670);
#670=APPLICATION_CONTEXT(
'core data for automotive mechanical design processes');
ENDSEC;
END-ISO-10303-21;
