ISO-10303-21;
HEADER;
/* Generated by software containing ST-Developer
 * from STEP Tools, Inc. (www.steptools.com) 
 */
/* OPTION: strings as raw bytes, not using required /X/ escapes */

FILE_DESCRIPTION(
/* description */ ('Unknown'),
/* implementation_level */ '2;1');

FILE_NAME(
/* name */ 'SNP 7135 W',
/* time_stamp */ '2020-08-21T09:51:15+02:00',
/* author */ ('Unknown'),
/* organization */ ('Unknown'),
/* preprocessor_version */ 'ST-DEVELOPER v16.7',
/* originating_system */ 'Solid Edge',
/* authorisation */ 'Unknown');

FILE_SCHEMA (('AUTOMOTIVE_DESIGN {1 0 10303 214 3 1 1}'));
ENDSEC;

DATA;
#10=PROPERTY_DEFINITION_REPRESENTATION(#14,#12);
#11=PROPERTY_DEFINITION_REPRESENTATION(#15,#13);
#12=REPRESENTATION('',(#16),#569);
#13=REPRESENTATION('',(#17),#569);
#14=PROPERTY_DEFINITION('pmi validation property','',#574);
#15=PROPERTY_DEFINITION('pmi validation property','',#574);
#16=VALUE_REPRESENTATION_ITEM('number of annotations',COUNT_MEASURE(0.));
#17=VALUE_REPRESENTATION_ITEM('number of views',COUNT_MEASURE(0.));
#18=SHAPE_REPRESENTATION_RELATIONSHIP('','',#359,#19);
#19=ADVANCED_BREP_SHAPE_REPRESENTATION('',(#357),#569);
#20=ELLIPSE('',#378,1.69705627484771,1.2);
#21=ELLIPSE('',#379,1.69705627484771,1.2);
#22=ELLIPSE('',#381,1.69705627484771,1.2);
#23=ELLIPSE('',#383,1.69705627484771,1.2);
#24=CYLINDRICAL_SURFACE('',#377,1.2);
#25=CYLINDRICAL_SURFACE('',#380,1.2);
#26=CYLINDRICAL_SURFACE('',#382,1.2);
#27=CYLINDRICAL_SURFACE('',#384,1.2);
#28=ORIENTED_EDGE('',*,*,#116,.F.);
#29=ORIENTED_EDGE('',*,*,#117,.F.);
#30=ORIENTED_EDGE('',*,*,#118,.F.);
#31=ORIENTED_EDGE('',*,*,#119,.F.);
#32=ORIENTED_EDGE('',*,*,#120,.F.);
#33=ORIENTED_EDGE('',*,*,#121,.F.);
#34=ORIENTED_EDGE('',*,*,#122,.F.);
#35=ORIENTED_EDGE('',*,*,#123,.F.);
#36=ORIENTED_EDGE('',*,*,#124,.F.);
#37=ORIENTED_EDGE('',*,*,#125,.F.);
#38=ORIENTED_EDGE('',*,*,#116,.T.);
#39=ORIENTED_EDGE('',*,*,#126,.T.);
#40=ORIENTED_EDGE('',*,*,#127,.F.);
#41=ORIENTED_EDGE('',*,*,#126,.F.);
#42=ORIENTED_EDGE('',*,*,#119,.T.);
#43=ORIENTED_EDGE('',*,*,#128,.T.);
#44=ORIENTED_EDGE('',*,*,#129,.F.);
#45=ORIENTED_EDGE('',*,*,#128,.F.);
#46=ORIENTED_EDGE('',*,*,#118,.T.);
#47=ORIENTED_EDGE('',*,*,#130,.T.);
#48=ORIENTED_EDGE('',*,*,#131,.F.);
#49=ORIENTED_EDGE('',*,*,#130,.F.);
#50=ORIENTED_EDGE('',*,*,#117,.T.);
#51=ORIENTED_EDGE('',*,*,#125,.T.);
#52=ORIENTED_EDGE('',*,*,#132,.F.);
#53=ORIENTED_EDGE('',*,*,#133,.F.);
#54=ORIENTED_EDGE('',*,*,#134,.F.);
#55=ORIENTED_EDGE('',*,*,#135,.F.);
#56=ORIENTED_EDGE('',*,*,#124,.T.);
#57=ORIENTED_EDGE('',*,*,#127,.T.);
#58=ORIENTED_EDGE('',*,*,#129,.T.);
#59=ORIENTED_EDGE('',*,*,#131,.T.);
#60=ORIENTED_EDGE('',*,*,#132,.T.);
#61=ORIENTED_EDGE('',*,*,#136,.F.);
#62=ORIENTED_EDGE('',*,*,#137,.F.);
#63=ORIENTED_EDGE('',*,*,#138,.T.);
#64=ORIENTED_EDGE('',*,*,#135,.T.);
#65=ORIENTED_EDGE('',*,*,#139,.F.);
#66=ORIENTED_EDGE('',*,*,#140,.F.);
#67=ORIENTED_EDGE('',*,*,#136,.T.);
#68=ORIENTED_EDGE('',*,*,#134,.T.);
#69=ORIENTED_EDGE('',*,*,#141,.F.);
#70=ORIENTED_EDGE('',*,*,#142,.F.);
#71=ORIENTED_EDGE('',*,*,#139,.T.);
#72=ORIENTED_EDGE('',*,*,#133,.T.);
#73=ORIENTED_EDGE('',*,*,#138,.F.);
#74=ORIENTED_EDGE('',*,*,#143,.F.);
#75=ORIENTED_EDGE('',*,*,#141,.T.);
#76=ORIENTED_EDGE('',*,*,#137,.T.);
#77=ORIENTED_EDGE('',*,*,#140,.T.);
#78=ORIENTED_EDGE('',*,*,#142,.T.);
#79=ORIENTED_EDGE('',*,*,#143,.T.);
#80=ORIENTED_EDGE('',*,*,#144,.F.);
#81=ORIENTED_EDGE('',*,*,#145,.T.);
#82=ORIENTED_EDGE('',*,*,#146,.T.);
#83=ORIENTED_EDGE('',*,*,#120,.T.);
#84=ORIENTED_EDGE('',*,*,#147,.F.);
#85=ORIENTED_EDGE('',*,*,#148,.T.);
#86=ORIENTED_EDGE('',*,*,#144,.T.);
#87=ORIENTED_EDGE('',*,*,#123,.T.);
#88=ORIENTED_EDGE('',*,*,#149,.F.);
#89=ORIENTED_EDGE('',*,*,#150,.T.);
#90=ORIENTED_EDGE('',*,*,#147,.T.);
#91=ORIENTED_EDGE('',*,*,#122,.T.);
#92=ORIENTED_EDGE('',*,*,#146,.F.);
#93=ORIENTED_EDGE('',*,*,#151,.T.);
#94=ORIENTED_EDGE('',*,*,#149,.T.);
#95=ORIENTED_EDGE('',*,*,#121,.T.);
#96=ORIENTED_EDGE('',*,*,#152,.T.);
#97=ORIENTED_EDGE('',*,*,#153,.T.);
#98=ORIENTED_EDGE('',*,*,#154,.T.);
#99=ORIENTED_EDGE('',*,*,#155,.T.);
#100=ORIENTED_EDGE('',*,*,#156,.F.);
#101=ORIENTED_EDGE('',*,*,#145,.F.);
#102=ORIENTED_EDGE('',*,*,#157,.F.);
#103=ORIENTED_EDGE('',*,*,#155,.F.);
#104=ORIENTED_EDGE('',*,*,#157,.T.);
#105=ORIENTED_EDGE('',*,*,#148,.F.);
#106=ORIENTED_EDGE('',*,*,#158,.F.);
#107=ORIENTED_EDGE('',*,*,#152,.F.);
#108=ORIENTED_EDGE('',*,*,#156,.T.);
#109=ORIENTED_EDGE('',*,*,#154,.F.);
#110=ORIENTED_EDGE('',*,*,#159,.F.);
#111=ORIENTED_EDGE('',*,*,#151,.F.);
#112=ORIENTED_EDGE('',*,*,#158,.T.);
#113=ORIENTED_EDGE('',*,*,#150,.F.);
#114=ORIENTED_EDGE('',*,*,#159,.T.);
#115=ORIENTED_EDGE('',*,*,#153,.F.);
#116=EDGE_CURVE('',#160,#161,#188,.T.);
#117=EDGE_CURVE('',#162,#160,#189,.T.);
#118=EDGE_CURVE('',#163,#162,#190,.T.);
#119=EDGE_CURVE('',#161,#163,#191,.T.);
#120=EDGE_CURVE('',#164,#165,#192,.T.);
#121=EDGE_CURVE('',#166,#164,#193,.T.);
#122=EDGE_CURVE('',#167,#166,#194,.T.);
#123=EDGE_CURVE('',#165,#167,#195,.T.);
#124=EDGE_CURVE('',#168,#169,#196,.T.);
#125=EDGE_CURVE('',#160,#168,#197,.T.);
#126=EDGE_CURVE('',#161,#169,#198,.T.);
#127=EDGE_CURVE('',#169,#170,#199,.T.);
#128=EDGE_CURVE('',#163,#170,#200,.T.);
#129=EDGE_CURVE('',#170,#171,#201,.T.);
#130=EDGE_CURVE('',#162,#171,#202,.T.);
#131=EDGE_CURVE('',#171,#168,#203,.T.);
#132=EDGE_CURVE('',#172,#173,#204,.T.);
#133=EDGE_CURVE('',#174,#172,#205,.T.);
#134=EDGE_CURVE('',#175,#174,#206,.T.);
#135=EDGE_CURVE('',#173,#175,#207,.T.);
#136=EDGE_CURVE('',#176,#173,#208,.T.);
#137=EDGE_CURVE('',#177,#176,#209,.T.);
#138=EDGE_CURVE('',#177,#172,#210,.T.);
#139=EDGE_CURVE('',#178,#175,#211,.T.);
#140=EDGE_CURVE('',#176,#178,#212,.T.);
#141=EDGE_CURVE('',#179,#174,#213,.T.);
#142=EDGE_CURVE('',#178,#179,#214,.T.);
#143=EDGE_CURVE('',#179,#177,#215,.T.);
#144=EDGE_CURVE('',#180,#165,#216,.T.);
#145=EDGE_CURVE('',#180,#181,#217,.F.);
#146=EDGE_CURVE('',#181,#164,#218,.T.);
#147=EDGE_CURVE('',#182,#167,#219,.T.);
#148=EDGE_CURVE('',#182,#180,#220,.F.);
#149=EDGE_CURVE('',#183,#166,#221,.T.);
#150=EDGE_CURVE('',#183,#182,#222,.F.);
#151=EDGE_CURVE('',#181,#183,#223,.F.);
#152=EDGE_CURVE('',#184,#185,#224,.T.);
#153=EDGE_CURVE('',#185,#186,#225,.T.);
#154=EDGE_CURVE('',#186,#187,#226,.T.);
#155=EDGE_CURVE('',#187,#184,#227,.T.);
#156=EDGE_CURVE('',#181,#187,#20,.T.);
#157=EDGE_CURVE('',#184,#180,#21,.F.);
#158=EDGE_CURVE('',#185,#182,#22,.F.);
#159=EDGE_CURVE('',#183,#186,#23,.T.);
#160=VERTEX_POINT('',#478);
#161=VERTEX_POINT('',#479);
#162=VERTEX_POINT('',#481);
#163=VERTEX_POINT('',#483);
#164=VERTEX_POINT('',#486);
#165=VERTEX_POINT('',#487);
#166=VERTEX_POINT('',#489);
#167=VERTEX_POINT('',#491);
#168=VERTEX_POINT('',#495);
#169=VERTEX_POINT('',#496);
#170=VERTEX_POINT('',#501);
#171=VERTEX_POINT('',#505);
#172=VERTEX_POINT('',#511);
#173=VERTEX_POINT('',#512);
#174=VERTEX_POINT('',#514);
#175=VERTEX_POINT('',#516);
#176=VERTEX_POINT('',#520);
#177=VERTEX_POINT('',#522);
#178=VERTEX_POINT('',#526);
#179=VERTEX_POINT('',#530);
#180=VERTEX_POINT('',#537);
#181=VERTEX_POINT('',#539);
#182=VERTEX_POINT('',#543);
#183=VERTEX_POINT('',#547);
#184=VERTEX_POINT('',#553);
#185=VERTEX_POINT('',#554);
#186=VERTEX_POINT('',#556);
#187=VERTEX_POINT('',#558);
#188=LINE('',#477,#228);
#189=LINE('',#480,#229);
#190=LINE('',#482,#230);
#191=LINE('',#484,#231);
#192=LINE('',#485,#232);
#193=LINE('',#488,#233);
#194=LINE('',#490,#234);
#195=LINE('',#492,#235);
#196=LINE('',#494,#236);
#197=LINE('',#497,#237);
#198=LINE('',#498,#238);
#199=LINE('',#500,#239);
#200=LINE('',#502,#240);
#201=LINE('',#504,#241);
#202=LINE('',#506,#242);
#203=LINE('',#508,#243);
#204=LINE('',#510,#244);
#205=LINE('',#513,#245);
#206=LINE('',#515,#246);
#207=LINE('',#517,#247);
#208=LINE('',#519,#248);
#209=LINE('',#521,#249);
#210=LINE('',#523,#250);
#211=LINE('',#525,#251);
#212=LINE('',#527,#252);
#213=LINE('',#529,#253);
#214=LINE('',#531,#254);
#215=LINE('',#533,#255);
#216=LINE('',#536,#256);
#217=LINE('',#538,#257);
#218=LINE('',#540,#258);
#219=LINE('',#542,#259);
#220=LINE('',#544,#260);
#221=LINE('',#546,#261);
#222=LINE('',#548,#262);
#223=LINE('',#550,#263);
#224=LINE('',#552,#264);
#225=LINE('',#555,#265);
#226=LINE('',#557,#266);
#227=LINE('',#559,#267);
#228=VECTOR('',#389,1000.);
#229=VECTOR('',#390,1000.);
#230=VECTOR('',#391,1000.);
#231=VECTOR('',#392,1000.);
#232=VECTOR('',#393,1000.);
#233=VECTOR('',#394,1000.);
#234=VECTOR('',#395,1000.);
#235=VECTOR('',#396,1000.);
#236=VECTOR('',#399,1000.);
#237=VECTOR('',#400,1000.);
#238=VECTOR('',#401,1000.);
#239=VECTOR('',#404,1000.);
#240=VECTOR('',#405,1000.);
#241=VECTOR('',#408,1000.);
#242=VECTOR('',#409,1000.);
#243=VECTOR('',#412,1000.);
#244=VECTOR('',#415,1000.);
#245=VECTOR('',#416,1000.);
#246=VECTOR('',#417,1000.);
#247=VECTOR('',#418,1000.);
#248=VECTOR('',#421,1000.);
#249=VECTOR('',#422,1000.);
#250=VECTOR('',#423,1000.);
#251=VECTOR('',#426,1000.);
#252=VECTOR('',#427,1000.);
#253=VECTOR('',#430,1000.);
#254=VECTOR('',#431,1000.);
#255=VECTOR('',#434,1000.);
#256=VECTOR('',#439,1000.);
#257=VECTOR('',#440,1000.);
#258=VECTOR('',#441,1000.);
#259=VECTOR('',#444,1000.);
#260=VECTOR('',#445,1000.);
#261=VECTOR('',#448,1000.);
#262=VECTOR('',#449,1000.);
#263=VECTOR('',#452,1000.);
#264=VECTOR('',#455,1000.);
#265=VECTOR('',#456,1000.);
#266=VECTOR('',#457,1000.);
#267=VECTOR('',#458,1000.);
#268=EDGE_LOOP('',(#28,#29,#30,#31));
#269=EDGE_LOOP('',(#32,#33,#34,#35));
#270=EDGE_LOOP('',(#36,#37,#38,#39));
#271=EDGE_LOOP('',(#40,#41,#42,#43));
#272=EDGE_LOOP('',(#44,#45,#46,#47));
#273=EDGE_LOOP('',(#48,#49,#50,#51));
#274=EDGE_LOOP('',(#52,#53,#54,#55));
#275=EDGE_LOOP('',(#56,#57,#58,#59));
#276=EDGE_LOOP('',(#60,#61,#62,#63));
#277=EDGE_LOOP('',(#64,#65,#66,#67));
#278=EDGE_LOOP('',(#68,#69,#70,#71));
#279=EDGE_LOOP('',(#72,#73,#74,#75));
#280=EDGE_LOOP('',(#76,#77,#78,#79));
#281=EDGE_LOOP('',(#80,#81,#82,#83));
#282=EDGE_LOOP('',(#84,#85,#86,#87));
#283=EDGE_LOOP('',(#88,#89,#90,#91));
#284=EDGE_LOOP('',(#92,#93,#94,#95));
#285=EDGE_LOOP('',(#96,#97,#98,#99));
#286=EDGE_LOOP('',(#100,#101,#102,#103));
#287=EDGE_LOOP('',(#104,#105,#106,#107));
#288=EDGE_LOOP('',(#108,#109,#110,#111));
#289=EDGE_LOOP('',(#112,#113,#114,#115));
#290=FACE_BOUND('',#268,.T.);
#291=FACE_BOUND('',#269,.T.);
#292=FACE_BOUND('',#270,.T.);
#293=FACE_BOUND('',#271,.T.);
#294=FACE_BOUND('',#272,.T.);
#295=FACE_BOUND('',#273,.T.);
#296=FACE_BOUND('',#274,.T.);
#297=FACE_BOUND('',#275,.T.);
#298=FACE_BOUND('',#276,.T.);
#299=FACE_BOUND('',#277,.T.);
#300=FACE_BOUND('',#278,.T.);
#301=FACE_BOUND('',#279,.T.);
#302=FACE_BOUND('',#280,.T.);
#303=FACE_BOUND('',#281,.T.);
#304=FACE_BOUND('',#282,.T.);
#305=FACE_BOUND('',#283,.T.);
#306=FACE_BOUND('',#284,.T.);
#307=FACE_BOUND('',#285,.T.);
#308=FACE_BOUND('',#286,.T.);
#309=FACE_BOUND('',#287,.T.);
#310=FACE_BOUND('',#288,.T.);
#311=FACE_BOUND('',#289,.T.);
#312=PLANE('',#361);
#313=PLANE('',#362);
#314=PLANE('',#363);
#315=PLANE('',#364);
#316=PLANE('',#365);
#317=PLANE('',#366);
#318=PLANE('',#367);
#319=PLANE('',#368);
#320=PLANE('',#369);
#321=PLANE('',#370);
#322=PLANE('',#371);
#323=PLANE('',#372);
#324=PLANE('',#373);
#325=PLANE('',#374);
#326=PLANE('',#375);
#327=PLANE('',#376);
#328=ADVANCED_FACE('',(#290,#291),#312,.F.);
#329=ADVANCED_FACE('',(#292),#313,.T.);
#330=ADVANCED_FACE('',(#293),#314,.T.);
#331=ADVANCED_FACE('',(#294),#315,.T.);
#332=ADVANCED_FACE('',(#295),#316,.T.);
#333=ADVANCED_FACE('',(#296,#297),#317,.T.);
#334=ADVANCED_FACE('',(#298),#318,.F.);
#335=ADVANCED_FACE('',(#299),#319,.F.);
#336=ADVANCED_FACE('',(#300),#320,.F.);
#337=ADVANCED_FACE('',(#301),#321,.F.);
#338=ADVANCED_FACE('',(#302),#322,.T.);
#339=ADVANCED_FACE('',(#303),#323,.F.);
#340=ADVANCED_FACE('',(#304),#324,.F.);
#341=ADVANCED_FACE('',(#305),#325,.F.);
#342=ADVANCED_FACE('',(#306),#326,.F.);
#343=ADVANCED_FACE('',(#307),#327,.T.);
#344=ADVANCED_FACE('',(#308),#24,.T.);
#345=ADVANCED_FACE('',(#309),#25,.T.);
#346=ADVANCED_FACE('',(#310),#26,.T.);
#347=ADVANCED_FACE('',(#311),#27,.T.);
#348=CLOSED_SHELL('',(#328,#329,#330,#331,#332,#333,#334,#335,#336,#337,
#338,#339,#340,#341,#342,#343,#344,#345,#346,#347));
#349=STYLED_ITEM('',(#350),#357);
#350=PRESENTATION_STYLE_ASSIGNMENT((#351));
#351=SURFACE_STYLE_USAGE(.BOTH.,#352);
#352=SURFACE_SIDE_STYLE('',(#353));
#353=SURFACE_STYLE_FILL_AREA(#354);
#354=FILL_AREA_STYLE('',(#355));
#355=FILL_AREA_STYLE_COLOUR('',#356);
#356=COLOUR_RGB('',0.645180702209473,0.678915679454803,0.699999988079071);
#357=MANIFOLD_SOLID_BREP('',#348);
#358=SHAPE_DEFINITION_REPRESENTATION(#574,#359);
#359=SHAPE_REPRESENTATION('SNP 7135 W',(#360),#569);
#360=AXIS2_PLACEMENT_3D('',#475,#385,#386);
#361=AXIS2_PLACEMENT_3D('',#476,#387,#388);
#362=AXIS2_PLACEMENT_3D('',#493,#397,#398);
#363=AXIS2_PLACEMENT_3D('',#499,#402,#403);
#364=AXIS2_PLACEMENT_3D('',#503,#406,#407);
#365=AXIS2_PLACEMENT_3D('',#507,#410,#411);
#366=AXIS2_PLACEMENT_3D('',#509,#413,#414);
#367=AXIS2_PLACEMENT_3D('',#518,#419,#420);
#368=AXIS2_PLACEMENT_3D('',#524,#424,#425);
#369=AXIS2_PLACEMENT_3D('',#528,#428,#429);
#370=AXIS2_PLACEMENT_3D('',#532,#432,#433);
#371=AXIS2_PLACEMENT_3D('',#534,#435,#436);
#372=AXIS2_PLACEMENT_3D('',#535,#437,#438);
#373=AXIS2_PLACEMENT_3D('',#541,#442,#443);
#374=AXIS2_PLACEMENT_3D('',#545,#446,#447);
#375=AXIS2_PLACEMENT_3D('',#549,#450,#451);
#376=AXIS2_PLACEMENT_3D('',#551,#453,#454);
#377=AXIS2_PLACEMENT_3D('',#560,#459,#460);
#378=AXIS2_PLACEMENT_3D('',#561,#461,#462);
#379=AXIS2_PLACEMENT_3D('',#562,#463,#464);
#380=AXIS2_PLACEMENT_3D('',#563,#465,#466);
#381=AXIS2_PLACEMENT_3D('',#564,#467,#468);
#382=AXIS2_PLACEMENT_3D('',#565,#469,#470);
#383=AXIS2_PLACEMENT_3D('',#566,#471,#472);
#384=AXIS2_PLACEMENT_3D('',#567,#473,#474);
#385=DIRECTION('',(0.,0.,1.));
#386=DIRECTION('',(1.,0.,0.));
#387=DIRECTION('',(0.,-1.,0.));
#388=DIRECTION('',(0.,0.,-1.));
#389=DIRECTION('',(0.,0.,1.));
#390=DIRECTION('',(1.,0.,0.));
#391=DIRECTION('',(0.,0.,-1.));
#392=DIRECTION('',(-1.,0.,0.));
#393=DIRECTION('',(1.,0.,0.));
#394=DIRECTION('',(0.,0.,1.));
#395=DIRECTION('',(-1.,0.,0.));
#396=DIRECTION('',(0.,0.,-1.));
#397=DIRECTION('',(1.,0.,0.));
#398=DIRECTION('',(0.,0.,-1.));
#399=DIRECTION('',(0.,0.,1.));
#400=DIRECTION('',(0.,-1.,0.));
#401=DIRECTION('',(0.,-1.,0.));
#402=DIRECTION('',(0.,0.,1.));
#403=DIRECTION('',(1.,0.,0.));
#404=DIRECTION('',(-1.,0.,0.));
#405=DIRECTION('',(0.,-1.,0.));
#406=DIRECTION('',(-1.,0.,0.));
#407=DIRECTION('',(0.,0.,1.));
#408=DIRECTION('',(0.,0.,-1.));
#409=DIRECTION('',(0.,-1.,0.));
#410=DIRECTION('',(0.,0.,-1.));
#411=DIRECTION('',(-1.,0.,0.));
#412=DIRECTION('',(1.,0.,0.));
#413=DIRECTION('',(0.,-1.,0.));
#414=DIRECTION('',(0.,0.,-1.));
#415=DIRECTION('',(0.,0.,1.));
#416=DIRECTION('',(1.,0.,0.));
#417=DIRECTION('',(0.,0.,-1.));
#418=DIRECTION('',(-1.,0.,0.));
#419=DIRECTION('',(1.,0.,0.));
#420=DIRECTION('',(0.,0.,-1.));
#421=DIRECTION('',(0.,-1.,0.));
#422=DIRECTION('',(0.,0.,1.));
#423=DIRECTION('',(0.,-1.,0.));
#424=DIRECTION('',(0.,0.,1.));
#425=DIRECTION('',(1.,0.,0.));
#426=DIRECTION('',(0.,-1.,0.));
#427=DIRECTION('',(-1.,0.,0.));
#428=DIRECTION('',(-1.,0.,0.));
#429=DIRECTION('',(0.,0.,1.));
#430=DIRECTION('',(0.,-1.,0.));
#431=DIRECTION('',(0.,0.,-1.));
#432=DIRECTION('',(0.,0.,-1.));
#433=DIRECTION('',(-1.,0.,0.));
#434=DIRECTION('',(1.,0.,0.));
#435=DIRECTION('',(0.,-1.,0.));
#436=DIRECTION('',(0.,0.,-1.));
#437=DIRECTION('',(0.,0.,-1.));
#438=DIRECTION('',(-1.,0.,0.));
#439=DIRECTION('',(0.,-1.,0.));
#440=DIRECTION('',(1.,0.,0.));
#441=DIRECTION('',(0.,-1.,0.));
#442=DIRECTION('',(-1.,0.,0.));
#443=DIRECTION('',(0.,0.,1.));
#444=DIRECTION('',(0.,-1.,0.));
#445=DIRECTION('',(0.,0.,-1.));
#446=DIRECTION('',(0.,0.,1.));
#447=DIRECTION('',(1.,0.,0.));
#448=DIRECTION('',(0.,-1.,0.));
#449=DIRECTION('',(-1.,0.,0.));
#450=DIRECTION('',(1.,0.,0.));
#451=DIRECTION('',(0.,0.,-1.));
#452=DIRECTION('',(0.,0.,1.));
#453=DIRECTION('',(0.,1.,0.));
#454=DIRECTION('',(0.,0.,1.));
#455=DIRECTION('',(0.,0.,-1.));
#456=DIRECTION('',(-1.,0.,0.));
#457=DIRECTION('',(0.,0.,1.));
#458=DIRECTION('',(1.,0.,0.));
#459=DIRECTION('',(-1.,0.,0.));
#460=DIRECTION('',(0.,0.,1.));
#461=DIRECTION('',(-0.707106781186547,0.,-0.707106781186547));
#462=DIRECTION('',(-0.707106781186547,0.,0.707106781186547));
#463=DIRECTION('',(-0.707106781186547,0.,0.707106781186547));
#464=DIRECTION('',(-0.707106781186547,0.,-0.707106781186547));
#465=DIRECTION('',(0.,0.,1.));
#466=DIRECTION('',(1.,0.,0.));
#467=DIRECTION('',(0.707106781186547,0.,0.707106781186547));
#468=DIRECTION('',(-0.707106781186547,0.,0.707106781186547));
#469=DIRECTION('',(0.,0.,-1.));
#470=DIRECTION('',(-1.,0.,0.));
#471=DIRECTION('',(0.707106781186547,0.,-0.707106781186547));
#472=DIRECTION('',(-0.707106781186547,0.,-0.707106781186547));
#473=DIRECTION('',(1.,0.,0.));
#474=DIRECTION('',(0.,0.,-1.));
#475=CARTESIAN_POINT('',(0.,0.,0.));
#476=CARTESIAN_POINT('',(0.,45.,0.));
#477=CARTESIAN_POINT('',(168.,45.,-93.));
#478=CARTESIAN_POINT('',(168.,45.,-93.));
#479=CARTESIAN_POINT('',(168.,45.,93.));
#480=CARTESIAN_POINT('',(-168.,45.,-93.));
#481=CARTESIAN_POINT('',(-168.,45.,-93.));
#482=CARTESIAN_POINT('',(-168.,45.,93.));
#483=CARTESIAN_POINT('',(-168.,45.,93.));
#484=CARTESIAN_POINT('',(168.,45.,93.));
#485=CARTESIAN_POINT('',(-125.,45.,70.));
#486=CARTESIAN_POINT('',(-125.,45.,70.));
#487=CARTESIAN_POINT('',(125.,45.,70.));
#488=CARTESIAN_POINT('',(-125.,45.,-70.));
#489=CARTESIAN_POINT('',(-125.,45.,-70.));
#490=CARTESIAN_POINT('',(125.,45.,-70.));
#491=CARTESIAN_POINT('',(125.,45.,-70.));
#492=CARTESIAN_POINT('',(125.,45.,70.));
#493=CARTESIAN_POINT('',(168.,45.,-93.));
#494=CARTESIAN_POINT('',(168.,0.,-93.));
#495=CARTESIAN_POINT('',(168.,0.,-93.));
#496=CARTESIAN_POINT('',(168.,0.,93.));
#497=CARTESIAN_POINT('',(168.,45.,-93.));
#498=CARTESIAN_POINT('',(168.,45.,93.));
#499=CARTESIAN_POINT('',(168.,45.,93.));
#500=CARTESIAN_POINT('',(168.,0.,93.));
#501=CARTESIAN_POINT('',(-168.,0.,93.));
#502=CARTESIAN_POINT('',(-168.,45.,93.));
#503=CARTESIAN_POINT('',(-168.,45.,93.));
#504=CARTESIAN_POINT('',(-168.,0.,93.));
#505=CARTESIAN_POINT('',(-168.,0.,-93.));
#506=CARTESIAN_POINT('',(-168.,45.,-93.));
#507=CARTESIAN_POINT('',(-168.,45.,-93.));
#508=CARTESIAN_POINT('',(-168.,0.,-93.));
#509=CARTESIAN_POINT('',(0.,0.,0.));
#510=CARTESIAN_POINT('',(160.,0.,-85.));
#511=CARTESIAN_POINT('',(160.,0.,-85.));
#512=CARTESIAN_POINT('',(160.,0.,85.));
#513=CARTESIAN_POINT('',(-160.,0.,-85.));
#514=CARTESIAN_POINT('',(-160.,0.,-85.));
#515=CARTESIAN_POINT('',(-160.,0.,85.));
#516=CARTESIAN_POINT('',(-160.,0.,85.));
#517=CARTESIAN_POINT('',(160.,0.,85.));
#518=CARTESIAN_POINT('',(160.,2.,-85.));
#519=CARTESIAN_POINT('',(160.,2.,85.));
#520=CARTESIAN_POINT('',(160.,2.,85.));
#521=CARTESIAN_POINT('',(160.,2.,-85.));
#522=CARTESIAN_POINT('',(160.,2.,-85.));
#523=CARTESIAN_POINT('',(160.,2.,-85.));
#524=CARTESIAN_POINT('',(160.,2.,85.));
#525=CARTESIAN_POINT('',(-160.,2.,85.));
#526=CARTESIAN_POINT('',(-160.,2.,85.));
#527=CARTESIAN_POINT('',(160.,2.,85.));
#528=CARTESIAN_POINT('',(-160.,2.,85.));
#529=CARTESIAN_POINT('',(-160.,2.,-85.));
#530=CARTESIAN_POINT('',(-160.,2.,-85.));
#531=CARTESIAN_POINT('',(-160.,2.,85.));
#532=CARTESIAN_POINT('',(-160.,2.,-85.));
#533=CARTESIAN_POINT('',(-160.,2.,-85.));
#534=CARTESIAN_POINT('',(0.,2.,0.));
#535=CARTESIAN_POINT('',(-125.,55.,70.));
#536=CARTESIAN_POINT('',(125.,55.,70.));
#537=CARTESIAN_POINT('',(125.,53.8,70.));
#538=CARTESIAN_POINT('',(-125.,53.8,70.));
#539=CARTESIAN_POINT('',(-125.,53.8,70.));
#540=CARTESIAN_POINT('',(-125.,55.,70.));
#541=CARTESIAN_POINT('',(125.,55.,70.));
#542=CARTESIAN_POINT('',(125.,55.,-70.));
#543=CARTESIAN_POINT('',(125.,53.8,-70.));
#544=CARTESIAN_POINT('',(125.,53.8,70.));
#545=CARTESIAN_POINT('',(125.,55.,-70.));
#546=CARTESIAN_POINT('',(-125.,55.,-70.));
#547=CARTESIAN_POINT('',(-125.,53.8,-70.));
#548=CARTESIAN_POINT('',(125.,53.8,-70.));
#549=CARTESIAN_POINT('',(-125.,55.,-70.));
#550=CARTESIAN_POINT('',(-125.,53.8,-70.));
#551=CARTESIAN_POINT('',(0.,55.,0.));
#552=CARTESIAN_POINT('',(123.8,55.,-70.));
#553=CARTESIAN_POINT('',(123.8,55.,68.8));
#554=CARTESIAN_POINT('',(123.8,55.,-68.8));
#555=CARTESIAN_POINT('',(-125.,55.,-68.8));
#556=CARTESIAN_POINT('',(-123.8,55.,-68.8));
#557=CARTESIAN_POINT('',(-123.8,55.,70.));
#558=CARTESIAN_POINT('',(-123.8,55.,68.8));
#559=CARTESIAN_POINT('',(125.,55.,68.8));
#560=CARTESIAN_POINT('',(0.,53.8,68.8));
#561=CARTESIAN_POINT('',(-123.8,53.8,68.8));
#562=CARTESIAN_POINT('',(123.8,53.8,68.8));
#563=CARTESIAN_POINT('',(123.8,53.8,0.));
#564=CARTESIAN_POINT('',(123.8,53.8,-68.8));
#565=CARTESIAN_POINT('',(-123.8,53.8,0.));
#566=CARTESIAN_POINT('',(-123.8,53.8,-68.8));
#567=CARTESIAN_POINT('',(0.,53.8,-68.8));
#568=MECHANICAL_DESIGN_GEOMETRIC_PRESENTATION_REPRESENTATION('',(#349),
#569);
#569=(
GEOMETRIC_REPRESENTATION_CONTEXT(3)
GLOBAL_UNCERTAINTY_ASSIGNED_CONTEXT((#570))
GLOBAL_UNIT_ASSIGNED_CONTEXT((#573,#572,#571))
REPRESENTATION_CONTEXT('SNP 7135 W','TOP_LEVEL_ASSEMBLY_PART')
);
#570=UNCERTAINTY_MEASURE_WITH_UNIT(LENGTH_MEASURE(0.005),#573,
'DISTANCE_ACCURACY_VALUE','Maximum Tolerance applied to model');
#571=(
NAMED_UNIT(*)
SI_UNIT($,.STERADIAN.)
SOLID_ANGLE_UNIT()
);
#572=(
NAMED_UNIT(*)
PLANE_ANGLE_UNIT()
SI_UNIT($,.RADIAN.)
);
#573=(
LENGTH_UNIT()
NAMED_UNIT(*)
SI_UNIT(.MILLI.,.METRE.)
);
#574=PRODUCT_DEFINITION_SHAPE('','',#575);
#575=PRODUCT_DEFINITION('','',#577,#576);
#576=PRODUCT_DEFINITION_CONTEXT('',#583,'design');
#577=PRODUCT_DEFINITION_FORMATION_WITH_SPECIFIED_SOURCE('','',#579,
 .NOT_KNOWN.);
#578=PRODUCT_RELATED_PRODUCT_CATEGORY('','',(#579));
#579=PRODUCT('SNP 7135 W','SNP 7135 W','SNP 7135 W',(#581));
#580=PRODUCT_CATEGORY('','');
#581=PRODUCT_CONTEXT('',#583,'mechanical');
#582=APPLICATION_PROTOCOL_DEFINITION('international standard',
'automotive_design',2010,#583);
#583=APPLICATION_CONTEXT(
'core data for automotive mechanical design processes');
ENDSEC;
END-ISO-10303-21;
