ISO-10303-21;
HEADER;
/* Generated by software containing ST-Developer
 * from STEP Tools, Inc. (www.steptools.com) 
 */
/* OPTION: strings as raw bytes, not using required /X/ escapes */

FILE_DESCRIPTION(
/* description */ ('Unknown'),
/* implementation_level */ '2;1');

FILE_NAME(
/* name */ 'SNP 7160',
/* time_stamp */ '2020-06-16T11:35:13+02:00',
/* author */ ('Unknown'),
/* organization */ ('Unknown'),
/* preprocessor_version */ 'ST-DEVELOPER v16.7',
/* originating_system */ 'Solid Edge',
/* authorisation */ 'Unknown');

FILE_SCHEMA (('AUTOMOTIVE_DESIGN {1 0 10303 214 3 1 1}'));
ENDSEC;

DATA;
#10=PROPERTY_DEFINITION_REPRESENTATION(#14,#12);
#11=PROPERTY_DEFINITION_REPRESENTATION(#15,#13);
#12=REPRESENTATION('',(#16),#447);
#13=REPRESENTATION('',(#17),#447);
#14=PROPERTY_DEFINITION('pmi validation property','',#452);
#15=PROPERTY_DEFINITION('pmi validation property','',#452);
#16=VALUE_REPRESENTATION_ITEM('number of annotations',COUNT_MEASURE(0.));
#17=VALUE_REPRESENTATION_ITEM('number of views',COUNT_MEASURE(0.));
#18=SHAPE_REPRESENTATION_RELATIONSHIP('','',#279,#19);
#19=ADVANCED_BREP_SHAPE_REPRESENTATION('',(#277),#447);
#20=TOROIDAL_SURFACE('',#302,9.98430067874513,2.5);
#21=TOROIDAL_SURFACE('',#303,9.98430067874513,2.5);
#22=CYLINDRICAL_SURFACE('',#294,12.4843006787451);
#23=CYLINDRICAL_SURFACE('',#298,12.4843006787451);
#24=CIRCLE('',#286,12.4843006787451);
#25=CIRCLE('',#287,12.4843006787451);
#26=CIRCLE('',#295,12.4843006787451);
#27=CIRCLE('',#297,9.98430067874513);
#28=CIRCLE('',#299,12.4843006787451);
#29=CIRCLE('',#301,9.98430067874513);
#30=ORIENTED_EDGE('',*,*,#90,.F.);
#31=ORIENTED_EDGE('',*,*,#91,.F.);
#32=ORIENTED_EDGE('',*,*,#92,.T.);
#33=ORIENTED_EDGE('',*,*,#93,.T.);
#34=ORIENTED_EDGE('',*,*,#94,.F.);
#35=ORIENTED_EDGE('',*,*,#93,.F.);
#36=ORIENTED_EDGE('',*,*,#95,.T.);
#37=ORIENTED_EDGE('',*,*,#96,.T.);
#38=ORIENTED_EDGE('',*,*,#97,.F.);
#39=ORIENTED_EDGE('',*,*,#96,.F.);
#40=ORIENTED_EDGE('',*,*,#98,.T.);
#41=ORIENTED_EDGE('',*,*,#99,.T.);
#42=ORIENTED_EDGE('',*,*,#100,.F.);
#43=ORIENTED_EDGE('',*,*,#99,.F.);
#44=ORIENTED_EDGE('',*,*,#101,.T.);
#45=ORIENTED_EDGE('',*,*,#91,.T.);
#46=ORIENTED_EDGE('',*,*,#102,.T.);
#47=ORIENTED_EDGE('',*,*,#103,.T.);
#48=ORIENTED_EDGE('',*,*,#92,.F.);
#49=ORIENTED_EDGE('',*,*,#101,.F.);
#50=ORIENTED_EDGE('',*,*,#98,.F.);
#51=ORIENTED_EDGE('',*,*,#95,.F.);
#52=ORIENTED_EDGE('',*,*,#104,.F.);
#53=ORIENTED_EDGE('',*,*,#105,.F.);
#54=ORIENTED_EDGE('',*,*,#106,.F.);
#55=ORIENTED_EDGE('',*,*,#107,.F.);
#56=ORIENTED_EDGE('',*,*,#90,.T.);
#57=ORIENTED_EDGE('',*,*,#94,.T.);
#58=ORIENTED_EDGE('',*,*,#97,.T.);
#59=ORIENTED_EDGE('',*,*,#100,.T.);
#60=ORIENTED_EDGE('',*,*,#104,.T.);
#61=ORIENTED_EDGE('',*,*,#108,.F.);
#62=ORIENTED_EDGE('',*,*,#109,.F.);
#63=ORIENTED_EDGE('',*,*,#110,.T.);
#64=ORIENTED_EDGE('',*,*,#107,.T.);
#65=ORIENTED_EDGE('',*,*,#111,.F.);
#66=ORIENTED_EDGE('',*,*,#112,.F.);
#67=ORIENTED_EDGE('',*,*,#108,.T.);
#68=ORIENTED_EDGE('',*,*,#106,.T.);
#69=ORIENTED_EDGE('',*,*,#113,.F.);
#70=ORIENTED_EDGE('',*,*,#114,.F.);
#71=ORIENTED_EDGE('',*,*,#111,.T.);
#72=ORIENTED_EDGE('',*,*,#105,.T.);
#73=ORIENTED_EDGE('',*,*,#110,.F.);
#74=ORIENTED_EDGE('',*,*,#115,.F.);
#75=ORIENTED_EDGE('',*,*,#113,.T.);
#76=ORIENTED_EDGE('',*,*,#109,.T.);
#77=ORIENTED_EDGE('',*,*,#112,.T.);
#78=ORIENTED_EDGE('',*,*,#114,.T.);
#79=ORIENTED_EDGE('',*,*,#115,.T.);
#80=ORIENTED_EDGE('',*,*,#116,.T.);
#81=ORIENTED_EDGE('',*,*,#103,.F.);
#82=ORIENTED_EDGE('',*,*,#117,.T.);
#83=ORIENTED_EDGE('',*,*,#118,.T.);
#84=ORIENTED_EDGE('',*,*,#102,.F.);
#85=ORIENTED_EDGE('',*,*,#119,.T.);
#86=ORIENTED_EDGE('',*,*,#119,.F.);
#87=ORIENTED_EDGE('',*,*,#118,.F.);
#88=ORIENTED_EDGE('',*,*,#117,.F.);
#89=ORIENTED_EDGE('',*,*,#116,.F.);
#90=EDGE_CURVE('',#120,#121,#142,.T.);
#91=EDGE_CURVE('',#122,#120,#143,.T.);
#92=EDGE_CURVE('',#122,#123,#144,.T.);
#93=EDGE_CURVE('',#123,#121,#145,.T.);
#94=EDGE_CURVE('',#121,#124,#146,.T.);
#95=EDGE_CURVE('',#123,#125,#147,.T.);
#96=EDGE_CURVE('',#125,#124,#148,.T.);
#97=EDGE_CURVE('',#124,#126,#149,.T.);
#98=EDGE_CURVE('',#125,#127,#150,.T.);
#99=EDGE_CURVE('',#127,#126,#151,.T.);
#100=EDGE_CURVE('',#126,#120,#152,.T.);
#101=EDGE_CURVE('',#127,#122,#153,.T.);
#102=EDGE_CURVE('',#128,#128,#24,.T.);
#103=EDGE_CURVE('',#129,#129,#25,.T.);
#104=EDGE_CURVE('',#130,#131,#154,.T.);
#105=EDGE_CURVE('',#132,#130,#155,.T.);
#106=EDGE_CURVE('',#133,#132,#156,.T.);
#107=EDGE_CURVE('',#131,#133,#157,.T.);
#108=EDGE_CURVE('',#134,#131,#158,.T.);
#109=EDGE_CURVE('',#135,#134,#159,.T.);
#110=EDGE_CURVE('',#135,#130,#160,.T.);
#111=EDGE_CURVE('',#136,#133,#161,.T.);
#112=EDGE_CURVE('',#134,#136,#162,.T.);
#113=EDGE_CURVE('',#137,#132,#163,.T.);
#114=EDGE_CURVE('',#136,#137,#164,.T.);
#115=EDGE_CURVE('',#137,#135,#165,.T.);
#116=EDGE_CURVE('',#138,#138,#26,.T.);
#117=EDGE_CURVE('',#139,#139,#27,.F.);
#118=EDGE_CURVE('',#140,#140,#28,.T.);
#119=EDGE_CURVE('',#141,#141,#29,.F.);
#120=VERTEX_POINT('',#379);
#121=VERTEX_POINT('',#380);
#122=VERTEX_POINT('',#382);
#123=VERTEX_POINT('',#384);
#124=VERTEX_POINT('',#388);
#125=VERTEX_POINT('',#390);
#126=VERTEX_POINT('',#394);
#127=VERTEX_POINT('',#396);
#128=VERTEX_POINT('',#403);
#129=VERTEX_POINT('',#405);
#130=VERTEX_POINT('',#408);
#131=VERTEX_POINT('',#409);
#132=VERTEX_POINT('',#411);
#133=VERTEX_POINT('',#413);
#134=VERTEX_POINT('',#417);
#135=VERTEX_POINT('',#419);
#136=VERTEX_POINT('',#423);
#137=VERTEX_POINT('',#427);
#138=VERTEX_POINT('',#434);
#139=VERTEX_POINT('',#437);
#140=VERTEX_POINT('',#440);
#141=VERTEX_POINT('',#443);
#142=LINE('',#378,#166);
#143=LINE('',#381,#167);
#144=LINE('',#383,#168);
#145=LINE('',#385,#169);
#146=LINE('',#387,#170);
#147=LINE('',#389,#171);
#148=LINE('',#391,#172);
#149=LINE('',#393,#173);
#150=LINE('',#395,#174);
#151=LINE('',#397,#175);
#152=LINE('',#399,#176);
#153=LINE('',#400,#177);
#154=LINE('',#407,#178);
#155=LINE('',#410,#179);
#156=LINE('',#412,#180);
#157=LINE('',#414,#181);
#158=LINE('',#416,#182);
#159=LINE('',#418,#183);
#160=LINE('',#420,#184);
#161=LINE('',#422,#185);
#162=LINE('',#424,#186);
#163=LINE('',#426,#187);
#164=LINE('',#428,#188);
#165=LINE('',#430,#189);
#166=VECTOR('',#308,1000.);
#167=VECTOR('',#309,1000.);
#168=VECTOR('',#310,1000.);
#169=VECTOR('',#311,1000.);
#170=VECTOR('',#314,1000.);
#171=VECTOR('',#315,1000.);
#172=VECTOR('',#316,1000.);
#173=VECTOR('',#319,1000.);
#174=VECTOR('',#320,1000.);
#175=VECTOR('',#321,1000.);
#176=VECTOR('',#324,1000.);
#177=VECTOR('',#325,1000.);
#178=VECTOR('',#334,1000.);
#179=VECTOR('',#335,1000.);
#180=VECTOR('',#336,1000.);
#181=VECTOR('',#337,1000.);
#182=VECTOR('',#340,1000.);
#183=VECTOR('',#341,1000.);
#184=VECTOR('',#342,1000.);
#185=VECTOR('',#345,1000.);
#186=VECTOR('',#346,1000.);
#187=VECTOR('',#349,1000.);
#188=VECTOR('',#350,1000.);
#189=VECTOR('',#353,1000.);
#190=EDGE_LOOP('',(#30,#31,#32,#33));
#191=EDGE_LOOP('',(#34,#35,#36,#37));
#192=EDGE_LOOP('',(#38,#39,#40,#41));
#193=EDGE_LOOP('',(#42,#43,#44,#45));
#194=EDGE_LOOP('',(#46));
#195=EDGE_LOOP('',(#47));
#196=EDGE_LOOP('',(#48,#49,#50,#51));
#197=EDGE_LOOP('',(#52,#53,#54,#55));
#198=EDGE_LOOP('',(#56,#57,#58,#59));
#199=EDGE_LOOP('',(#60,#61,#62,#63));
#200=EDGE_LOOP('',(#64,#65,#66,#67));
#201=EDGE_LOOP('',(#68,#69,#70,#71));
#202=EDGE_LOOP('',(#72,#73,#74,#75));
#203=EDGE_LOOP('',(#76,#77,#78,#79));
#204=EDGE_LOOP('',(#80));
#205=EDGE_LOOP('',(#81));
#206=EDGE_LOOP('',(#82));
#207=EDGE_LOOP('',(#83));
#208=EDGE_LOOP('',(#84));
#209=EDGE_LOOP('',(#85));
#210=EDGE_LOOP('',(#86));
#211=EDGE_LOOP('',(#87));
#212=EDGE_LOOP('',(#88));
#213=EDGE_LOOP('',(#89));
#214=FACE_BOUND('',#190,.T.);
#215=FACE_BOUND('',#191,.T.);
#216=FACE_BOUND('',#192,.T.);
#217=FACE_BOUND('',#193,.T.);
#218=FACE_BOUND('',#194,.T.);
#219=FACE_BOUND('',#195,.T.);
#220=FACE_BOUND('',#196,.T.);
#221=FACE_BOUND('',#197,.T.);
#222=FACE_BOUND('',#198,.T.);
#223=FACE_BOUND('',#199,.T.);
#224=FACE_BOUND('',#200,.T.);
#225=FACE_BOUND('',#201,.T.);
#226=FACE_BOUND('',#202,.T.);
#227=FACE_BOUND('',#203,.T.);
#228=FACE_BOUND('',#204,.T.);
#229=FACE_BOUND('',#205,.T.);
#230=FACE_BOUND('',#206,.T.);
#231=FACE_BOUND('',#207,.T.);
#232=FACE_BOUND('',#208,.T.);
#233=FACE_BOUND('',#209,.T.);
#234=FACE_BOUND('',#210,.T.);
#235=FACE_BOUND('',#211,.T.);
#236=FACE_BOUND('',#212,.T.);
#237=FACE_BOUND('',#213,.T.);
#238=PLANE('',#281);
#239=PLANE('',#282);
#240=PLANE('',#283);
#241=PLANE('',#284);
#242=PLANE('',#285);
#243=PLANE('',#288);
#244=PLANE('',#289);
#245=PLANE('',#290);
#246=PLANE('',#291);
#247=PLANE('',#292);
#248=PLANE('',#293);
#249=PLANE('',#296);
#250=PLANE('',#300);
#251=ADVANCED_FACE('',(#214),#238,.T.);
#252=ADVANCED_FACE('',(#215),#239,.T.);
#253=ADVANCED_FACE('',(#216),#240,.T.);
#254=ADVANCED_FACE('',(#217),#241,.T.);
#255=ADVANCED_FACE('',(#218,#219,#220),#242,.F.);
#256=ADVANCED_FACE('',(#221,#222),#243,.T.);
#257=ADVANCED_FACE('',(#223),#244,.F.);
#258=ADVANCED_FACE('',(#224),#245,.F.);
#259=ADVANCED_FACE('',(#225),#246,.F.);
#260=ADVANCED_FACE('',(#226),#247,.F.);
#261=ADVANCED_FACE('',(#227),#248,.T.);
#262=ADVANCED_FACE('',(#228,#229),#22,.T.);
#263=ADVANCED_FACE('',(#230),#249,.F.);
#264=ADVANCED_FACE('',(#231,#232),#23,.T.);
#265=ADVANCED_FACE('',(#233),#250,.F.);
#266=ADVANCED_FACE('',(#234,#235),#20,.T.);
#267=ADVANCED_FACE('',(#236,#237),#21,.T.);
#268=CLOSED_SHELL('',(#251,#252,#253,#254,#255,#256,#257,#258,#259,#260,
#261,#262,#263,#264,#265,#266,#267));
#269=STYLED_ITEM('',(#270),#277);
#270=PRESENTATION_STYLE_ASSIGNMENT((#271));
#271=SURFACE_STYLE_USAGE(.BOTH.,#272);
#272=SURFACE_SIDE_STYLE('',(#273));
#273=SURFACE_STYLE_FILL_AREA(#274);
#274=FILL_AREA_STYLE('',(#275));
#275=FILL_AREA_STYLE_COLOUR('',#276);
#276=COLOUR_RGB('',0.645180702209473,0.678915679454803,0.699999988079071);
#277=MANIFOLD_SOLID_BREP('',#268);
#278=SHAPE_DEFINITION_REPRESENTATION(#452,#279);
#279=SHAPE_REPRESENTATION('SNP 7160',(#280),#447);
#280=AXIS2_PLACEMENT_3D('',#376,#304,#305);
#281=AXIS2_PLACEMENT_3D('',#377,#306,#307);
#282=AXIS2_PLACEMENT_3D('',#386,#312,#313);
#283=AXIS2_PLACEMENT_3D('',#392,#317,#318);
#284=AXIS2_PLACEMENT_3D('',#398,#322,#323);
#285=AXIS2_PLACEMENT_3D('',#401,#326,#327);
#286=AXIS2_PLACEMENT_3D('',#402,#328,#329);
#287=AXIS2_PLACEMENT_3D('',#404,#330,#331);
#288=AXIS2_PLACEMENT_3D('',#406,#332,#333);
#289=AXIS2_PLACEMENT_3D('',#415,#338,#339);
#290=AXIS2_PLACEMENT_3D('',#421,#343,#344);
#291=AXIS2_PLACEMENT_3D('',#425,#347,#348);
#292=AXIS2_PLACEMENT_3D('',#429,#351,#352);
#293=AXIS2_PLACEMENT_3D('',#431,#354,#355);
#294=AXIS2_PLACEMENT_3D('',#432,#356,#357);
#295=AXIS2_PLACEMENT_3D('',#433,#358,#359);
#296=AXIS2_PLACEMENT_3D('',#435,#360,#361);
#297=AXIS2_PLACEMENT_3D('',#436,#362,#363);
#298=AXIS2_PLACEMENT_3D('',#438,#364,#365);
#299=AXIS2_PLACEMENT_3D('',#439,#366,#367);
#300=AXIS2_PLACEMENT_3D('',#441,#368,#369);
#301=AXIS2_PLACEMENT_3D('',#442,#370,#371);
#302=AXIS2_PLACEMENT_3D('',#444,#372,#373);
#303=AXIS2_PLACEMENT_3D('',#445,#374,#375);
#304=DIRECTION('',(0.,0.,1.));
#305=DIRECTION('',(1.,0.,0.));
#306=DIRECTION('',(1.,0.,0.));
#307=DIRECTION('',(0.,0.,-1.));
#308=DIRECTION('',(0.,0.,1.));
#309=DIRECTION('',(0.,-1.,0.));
#310=DIRECTION('',(0.,0.,1.));
#311=DIRECTION('',(0.,-1.,0.));
#312=DIRECTION('',(0.,0.,1.));
#313=DIRECTION('',(1.,0.,0.));
#314=DIRECTION('',(-1.,0.,0.));
#315=DIRECTION('',(-1.,0.,0.));
#316=DIRECTION('',(0.,-1.,0.));
#317=DIRECTION('',(-1.,0.,0.));
#318=DIRECTION('',(0.,0.,1.));
#319=DIRECTION('',(0.,0.,-1.));
#320=DIRECTION('',(0.,0.,-1.));
#321=DIRECTION('',(0.,-1.,0.));
#322=DIRECTION('',(0.,0.,-1.));
#323=DIRECTION('',(-1.,0.,0.));
#324=DIRECTION('',(1.,0.,0.));
#325=DIRECTION('',(1.,0.,0.));
#326=DIRECTION('',(0.,-1.,0.));
#327=DIRECTION('',(0.,0.,-1.));
#328=DIRECTION('',(0.,-1.,0.));
#329=DIRECTION('',(-1.,0.,0.));
#330=DIRECTION('',(0.,-1.,0.));
#331=DIRECTION('',(-1.,0.,0.));
#332=DIRECTION('',(0.,-1.,0.));
#333=DIRECTION('',(0.,0.,-1.));
#334=DIRECTION('',(0.,0.,1.));
#335=DIRECTION('',(1.,0.,0.));
#336=DIRECTION('',(0.,0.,-1.));
#337=DIRECTION('',(-1.,0.,0.));
#338=DIRECTION('',(1.,0.,0.));
#339=DIRECTION('',(0.,0.,-1.));
#340=DIRECTION('',(0.,-1.,0.));
#341=DIRECTION('',(0.,0.,1.));
#342=DIRECTION('',(0.,-1.,0.));
#343=DIRECTION('',(0.,0.,1.));
#344=DIRECTION('',(1.,0.,0.));
#345=DIRECTION('',(0.,-1.,0.));
#346=DIRECTION('',(-1.,0.,0.));
#347=DIRECTION('',(-1.,0.,0.));
#348=DIRECTION('',(0.,0.,1.));
#349=DIRECTION('',(0.,-1.,0.));
#350=DIRECTION('',(0.,0.,-1.));
#351=DIRECTION('',(0.,0.,-1.));
#352=DIRECTION('',(-1.,0.,0.));
#353=DIRECTION('',(1.,0.,0.));
#354=DIRECTION('',(0.,-1.,0.));
#355=DIRECTION('',(0.,0.,-1.));
#356=DIRECTION('',(0.,-1.,0.));
#357=DIRECTION('',(0.,0.,-1.));
#358=DIRECTION('',(0.,-1.,0.));
#359=DIRECTION('',(0.,0.,-1.));
#360=DIRECTION('',(0.,-1.,0.));
#361=DIRECTION('',(0.,0.,-1.));
#362=DIRECTION('',(0.,-1.,0.));
#363=DIRECTION('',(0.,0.,-1.));
#364=DIRECTION('',(0.,-1.,0.));
#365=DIRECTION('',(0.,0.,-1.));
#366=DIRECTION('',(0.,-1.,0.));
#367=DIRECTION('',(0.,0.,-1.));
#368=DIRECTION('',(0.,-1.,0.));
#369=DIRECTION('',(0.,0.,-1.));
#370=DIRECTION('',(0.,-1.,0.));
#371=DIRECTION('',(0.,0.,-1.));
#372=DIRECTION('',(0.,-1.,0.));
#373=DIRECTION('',(0.,0.,-1.));
#374=DIRECTION('',(0.,-1.,0.));
#375=DIRECTION('',(0.,0.,-1.));
#376=CARTESIAN_POINT('',(0.,0.,0.));
#377=CARTESIAN_POINT('',(312.,80.,-162.));
#378=CARTESIAN_POINT('',(312.,0.,-162.));
#379=CARTESIAN_POINT('',(312.,0.,-162.));
#380=CARTESIAN_POINT('',(312.,0.,162.));
#381=CARTESIAN_POINT('',(312.,80.,-162.));
#382=CARTESIAN_POINT('',(312.,80.,-162.));
#383=CARTESIAN_POINT('',(312.,80.,-162.));
#384=CARTESIAN_POINT('',(312.,80.,162.));
#385=CARTESIAN_POINT('',(312.,80.,162.));
#386=CARTESIAN_POINT('',(312.,80.,162.));
#387=CARTESIAN_POINT('',(312.,0.,162.));
#388=CARTESIAN_POINT('',(-312.,0.,162.));
#389=CARTESIAN_POINT('',(312.,80.,162.));
#390=CARTESIAN_POINT('',(-312.,80.,162.));
#391=CARTESIAN_POINT('',(-312.,80.,162.));
#392=CARTESIAN_POINT('',(-312.,80.,162.));
#393=CARTESIAN_POINT('',(-312.,0.,162.));
#394=CARTESIAN_POINT('',(-312.,0.,-162.));
#395=CARTESIAN_POINT('',(-312.,80.,162.));
#396=CARTESIAN_POINT('',(-312.,80.,-162.));
#397=CARTESIAN_POINT('',(-312.,80.,-162.));
#398=CARTESIAN_POINT('',(-312.,80.,-162.));
#399=CARTESIAN_POINT('',(-312.,0.,-162.));
#400=CARTESIAN_POINT('',(-312.,80.,-162.));
#401=CARTESIAN_POINT('',(0.,80.,0.));
#402=CARTESIAN_POINT('',(-21.,80.,29.));
#403=CARTESIAN_POINT('',(-33.4843006787451,80.,29.));
#404=CARTESIAN_POINT('',(8.99999999999998,80.,29.));
#405=CARTESIAN_POINT('',(-3.48430067874515,80.,29.));
#406=CARTESIAN_POINT('',(0.,0.,0.));
#407=CARTESIAN_POINT('',(301.,0.,-151.));
#408=CARTESIAN_POINT('',(301.,0.,-151.));
#409=CARTESIAN_POINT('',(301.,0.,151.));
#410=CARTESIAN_POINT('',(-301.,0.,-151.));
#411=CARTESIAN_POINT('',(-301.,0.,-151.));
#412=CARTESIAN_POINT('',(-301.,0.,151.));
#413=CARTESIAN_POINT('',(-301.,0.,151.));
#414=CARTESIAN_POINT('',(301.,0.,151.));
#415=CARTESIAN_POINT('',(301.,1.,-151.));
#416=CARTESIAN_POINT('',(301.,1.,151.));
#417=CARTESIAN_POINT('',(301.,1.,151.));
#418=CARTESIAN_POINT('',(301.,1.,-151.));
#419=CARTESIAN_POINT('',(301.,1.,-151.));
#420=CARTESIAN_POINT('',(301.,1.,-151.));
#421=CARTESIAN_POINT('',(301.,1.,151.));
#422=CARTESIAN_POINT('',(-301.,1.,151.));
#423=CARTESIAN_POINT('',(-301.,1.,151.));
#424=CARTESIAN_POINT('',(301.,1.,151.));
#425=CARTESIAN_POINT('',(-301.,1.,151.));
#426=CARTESIAN_POINT('',(-301.,1.,-151.));
#427=CARTESIAN_POINT('',(-301.,1.,-151.));
#428=CARTESIAN_POINT('',(-301.,1.,151.));
#429=CARTESIAN_POINT('',(-301.,1.,-151.));
#430=CARTESIAN_POINT('',(-301.,1.,-151.));
#431=CARTESIAN_POINT('',(0.,1.,0.));
#432=CARTESIAN_POINT('',(8.99999999999998,84.,29.));
#433=CARTESIAN_POINT('',(8.99999999999998,81.5,29.));
#434=CARTESIAN_POINT('',(8.99999999999998,81.5,16.5156993212549));
#435=CARTESIAN_POINT('',(8.99999999999998,84.,29.));
#436=CARTESIAN_POINT('',(8.99999999999998,84.,29.));
#437=CARTESIAN_POINT('',(8.99999999999998,84.,19.0156993212549));
#438=CARTESIAN_POINT('',(-21.,84.,29.));
#439=CARTESIAN_POINT('',(-21.,81.5,29.));
#440=CARTESIAN_POINT('',(-21.,81.5,16.5156993212549));
#441=CARTESIAN_POINT('',(-21.,84.,29.));
#442=CARTESIAN_POINT('',(-21.,84.,29.));
#443=CARTESIAN_POINT('',(-21.,84.,19.0156993212549));
#444=CARTESIAN_POINT('',(-21.,81.5,29.));
#445=CARTESIAN_POINT('',(8.99999999999998,81.5,29.));
#446=MECHANICAL_DESIGN_GEOMETRIC_PRESENTATION_REPRESENTATION('',(#269),
#447);
#447=(
GEOMETRIC_REPRESENTATION_CONTEXT(3)
GLOBAL_UNCERTAINTY_ASSIGNED_CONTEXT((#448))
GLOBAL_UNIT_ASSIGNED_CONTEXT((#451,#450,#449))
REPRESENTATION_CONTEXT('SNP 7160','TOP_LEVEL_ASSEMBLY_PART')
);
#448=UNCERTAINTY_MEASURE_WITH_UNIT(LENGTH_MEASURE(0.005),#451,
'DISTANCE_ACCURACY_VALUE','Maximum Tolerance applied to model');
#449=(
NAMED_UNIT(*)
SI_UNIT($,.STERADIAN.)
SOLID_ANGLE_UNIT()
);
#450=(
NAMED_UNIT(*)
PLANE_ANGLE_UNIT()
SI_UNIT($,.RADIAN.)
);
#451=(
LENGTH_UNIT()
NAMED_UNIT(*)
SI_UNIT(.MILLI.,.METRE.)
);
#452=PRODUCT_DEFINITION_SHAPE('','',#453);
#453=PRODUCT_DEFINITION('','',#455,#454);
#454=PRODUCT_DEFINITION_CONTEXT('',#461,'design');
#455=PRODUCT_DEFINITION_FORMATION_WITH_SPECIFIED_SOURCE('','',#457,
 .NOT_KNOWN.);
#456=PRODUCT_RELATED_PRODUCT_CATEGORY('','',(#457));
#457=PRODUCT('SNP 7160','SNP 7160','SNP 7160',(#459));
#458=PRODUCT_CATEGORY('','');
#459=PRODUCT_CONTEXT('',#461,'mechanical');
#460=APPLICATION_PROTOCOL_DEFINITION('international standard',
'automotive_design',2010,#461);
#461=APPLICATION_CONTEXT(
'core data for automotive mechanical design processes');
ENDSEC;
END-ISO-10303-21;
