ISO-10303-21;
HEADER;
/* Generated by software containing ST-Developer
 * from STEP Tools, Inc. (www.steptools.com) 
 */
/* OPTION: strings as raw bytes, not using required /X/ escapes */

FILE_DESCRIPTION(
/* description */ ('Unknown',
'CAx-IF Rec.Pracs.---Representation and Presentation of Product Manufa
cturing Information (PMI)---4.0---2014-10-13',
'CAx-IF Rec.Pracs.---3D Tessellated Geometry---0.4---2014-09-14','2;1'),

/* implementation_level */ '2;1');

FILE_NAME(
/* name */ 'SNP 7235 D',
/* time_stamp */ '2020-08-20T06:41:56+02:00',
/* author */ ('Unknown'),
/* organization */ ('Unknown'),
/* preprocessor_version */ 'ST-DEVELOPER v16.7',
/* originating_system */ 'Solid Edge',
/* authorisation */ 'Unknown');

FILE_SCHEMA (('AP242_MANAGED_MODEL_BASED_3D_ENGINEERING_MIM_LF { 1 0 10303 442 1 1 4 }'));
ENDSEC;

DATA;
#10=SHAPE_REPRESENTATION_RELATIONSHIP('','',#385,#11);
#11=ADVANCED_BREP_SHAPE_REPRESENTATION('',(#383),#603);
#12=ORIENTED_EDGE('',*,*,#108,.F.);
#13=ORIENTED_EDGE('',*,*,#109,.F.);
#14=ORIENTED_EDGE('',*,*,#110,.T.);
#15=ORIENTED_EDGE('',*,*,#111,.T.);
#16=ORIENTED_EDGE('',*,*,#112,.F.);
#17=ORIENTED_EDGE('',*,*,#111,.F.);
#18=ORIENTED_EDGE('',*,*,#113,.T.);
#19=ORIENTED_EDGE('',*,*,#114,.T.);
#20=ORIENTED_EDGE('',*,*,#115,.F.);
#21=ORIENTED_EDGE('',*,*,#114,.F.);
#22=ORIENTED_EDGE('',*,*,#116,.T.);
#23=ORIENTED_EDGE('',*,*,#117,.T.);
#24=ORIENTED_EDGE('',*,*,#118,.F.);
#25=ORIENTED_EDGE('',*,*,#119,.F.);
#26=ORIENTED_EDGE('',*,*,#120,.F.);
#27=ORIENTED_EDGE('',*,*,#121,.F.);
#28=ORIENTED_EDGE('',*,*,#110,.F.);
#29=ORIENTED_EDGE('',*,*,#122,.F.);
#30=ORIENTED_EDGE('',*,*,#116,.F.);
#31=ORIENTED_EDGE('',*,*,#113,.F.);
#32=ORIENTED_EDGE('',*,*,#123,.F.);
#33=ORIENTED_EDGE('',*,*,#124,.F.);
#34=ORIENTED_EDGE('',*,*,#125,.F.);
#35=ORIENTED_EDGE('',*,*,#126,.F.);
#36=ORIENTED_EDGE('',*,*,#108,.T.);
#37=ORIENTED_EDGE('',*,*,#112,.T.);
#38=ORIENTED_EDGE('',*,*,#115,.T.);
#39=ORIENTED_EDGE('',*,*,#127,.T.);
#40=ORIENTED_EDGE('',*,*,#128,.T.);
#41=ORIENTED_EDGE('',*,*,#129,.F.);
#42=ORIENTED_EDGE('',*,*,#130,.F.);
#43=ORIENTED_EDGE('',*,*,#131,.T.);
#44=ORIENTED_EDGE('',*,*,#132,.T.);
#45=ORIENTED_EDGE('',*,*,#133,.F.);
#46=ORIENTED_EDGE('',*,*,#134,.F.);
#47=ORIENTED_EDGE('',*,*,#129,.T.);
#48=ORIENTED_EDGE('',*,*,#135,.T.);
#49=ORIENTED_EDGE('',*,*,#136,.F.);
#50=ORIENTED_EDGE('',*,*,#137,.F.);
#51=ORIENTED_EDGE('',*,*,#133,.T.);
#52=ORIENTED_EDGE('',*,*,#138,.T.);
#53=ORIENTED_EDGE('',*,*,#131,.F.);
#54=ORIENTED_EDGE('',*,*,#139,.F.);
#55=ORIENTED_EDGE('',*,*,#136,.T.);
#56=ORIENTED_EDGE('',*,*,#130,.T.);
#57=ORIENTED_EDGE('',*,*,#134,.T.);
#58=ORIENTED_EDGE('',*,*,#137,.T.);
#59=ORIENTED_EDGE('',*,*,#139,.T.);
#60=ORIENTED_EDGE('',*,*,#127,.F.);
#61=ORIENTED_EDGE('',*,*,#117,.F.);
#62=ORIENTED_EDGE('',*,*,#122,.T.);
#63=ORIENTED_EDGE('',*,*,#109,.T.);
#64=ORIENTED_EDGE('',*,*,#128,.F.);
#65=ORIENTED_EDGE('',*,*,#138,.F.);
#66=ORIENTED_EDGE('',*,*,#135,.F.);
#67=ORIENTED_EDGE('',*,*,#132,.F.);
#68=ORIENTED_EDGE('',*,*,#123,.T.);
#69=ORIENTED_EDGE('',*,*,#140,.F.);
#70=ORIENTED_EDGE('',*,*,#141,.F.);
#71=ORIENTED_EDGE('',*,*,#142,.T.);
#72=ORIENTED_EDGE('',*,*,#126,.T.);
#73=ORIENTED_EDGE('',*,*,#143,.F.);
#74=ORIENTED_EDGE('',*,*,#144,.F.);
#75=ORIENTED_EDGE('',*,*,#140,.T.);
#76=ORIENTED_EDGE('',*,*,#125,.T.);
#77=ORIENTED_EDGE('',*,*,#145,.F.);
#78=ORIENTED_EDGE('',*,*,#146,.F.);
#79=ORIENTED_EDGE('',*,*,#143,.T.);
#80=ORIENTED_EDGE('',*,*,#124,.T.);
#81=ORIENTED_EDGE('',*,*,#142,.F.);
#82=ORIENTED_EDGE('',*,*,#147,.F.);
#83=ORIENTED_EDGE('',*,*,#145,.T.);
#84=ORIENTED_EDGE('',*,*,#141,.T.);
#85=ORIENTED_EDGE('',*,*,#144,.T.);
#86=ORIENTED_EDGE('',*,*,#146,.T.);
#87=ORIENTED_EDGE('',*,*,#147,.T.);
#88=ORIENTED_EDGE('',*,*,#119,.T.);
#89=ORIENTED_EDGE('',*,*,#148,.F.);
#90=ORIENTED_EDGE('',*,*,#149,.F.);
#91=ORIENTED_EDGE('',*,*,#150,.T.);
#92=ORIENTED_EDGE('',*,*,#118,.T.);
#93=ORIENTED_EDGE('',*,*,#151,.F.);
#94=ORIENTED_EDGE('',*,*,#152,.F.);
#95=ORIENTED_EDGE('',*,*,#148,.T.);
#96=ORIENTED_EDGE('',*,*,#121,.T.);
#97=ORIENTED_EDGE('',*,*,#153,.F.);
#98=ORIENTED_EDGE('',*,*,#154,.F.);
#99=ORIENTED_EDGE('',*,*,#151,.T.);
#100=ORIENTED_EDGE('',*,*,#120,.T.);
#101=ORIENTED_EDGE('',*,*,#150,.F.);
#102=ORIENTED_EDGE('',*,*,#155,.F.);
#103=ORIENTED_EDGE('',*,*,#153,.T.);
#104=ORIENTED_EDGE('',*,*,#149,.T.);
#105=ORIENTED_EDGE('',*,*,#152,.T.);
#106=ORIENTED_EDGE('',*,*,#154,.T.);
#107=ORIENTED_EDGE('',*,*,#155,.T.);
#108=EDGE_CURVE('',#156,#157,#188,.T.);
#109=EDGE_CURVE('',#158,#156,#189,.T.);
#110=EDGE_CURVE('',#158,#159,#190,.T.);
#111=EDGE_CURVE('',#159,#157,#191,.T.);
#112=EDGE_CURVE('',#157,#160,#192,.T.);
#113=EDGE_CURVE('',#159,#161,#193,.T.);
#114=EDGE_CURVE('',#161,#160,#194,.T.);
#115=EDGE_CURVE('',#160,#162,#195,.T.);
#116=EDGE_CURVE('',#161,#163,#196,.T.);
#117=EDGE_CURVE('',#163,#162,#197,.T.);
#118=EDGE_CURVE('',#164,#165,#198,.T.);
#119=EDGE_CURVE('',#166,#164,#199,.T.);
#120=EDGE_CURVE('',#167,#166,#200,.T.);
#121=EDGE_CURVE('',#165,#167,#201,.T.);
#122=EDGE_CURVE('',#163,#158,#202,.T.);
#123=EDGE_CURVE('',#168,#169,#203,.T.);
#124=EDGE_CURVE('',#170,#168,#204,.T.);
#125=EDGE_CURVE('',#171,#170,#205,.T.);
#126=EDGE_CURVE('',#169,#171,#206,.T.);
#127=EDGE_CURVE('',#162,#156,#207,.T.);
#128=EDGE_CURVE('',#172,#173,#208,.T.);
#129=EDGE_CURVE('',#174,#173,#209,.T.);
#130=EDGE_CURVE('',#175,#174,#210,.T.);
#131=EDGE_CURVE('',#175,#172,#211,.T.);
#132=EDGE_CURVE('',#173,#176,#212,.T.);
#133=EDGE_CURVE('',#177,#176,#213,.T.);
#134=EDGE_CURVE('',#174,#177,#214,.T.);
#135=EDGE_CURVE('',#176,#178,#215,.T.);
#136=EDGE_CURVE('',#179,#178,#216,.T.);
#137=EDGE_CURVE('',#177,#179,#217,.T.);
#138=EDGE_CURVE('',#178,#172,#218,.T.);
#139=EDGE_CURVE('',#179,#175,#219,.T.);
#140=EDGE_CURVE('',#180,#169,#220,.T.);
#141=EDGE_CURVE('',#181,#180,#221,.T.);
#142=EDGE_CURVE('',#181,#168,#222,.T.);
#143=EDGE_CURVE('',#182,#171,#223,.T.);
#144=EDGE_CURVE('',#180,#182,#224,.T.);
#145=EDGE_CURVE('',#183,#170,#225,.T.);
#146=EDGE_CURVE('',#182,#183,#226,.T.);
#147=EDGE_CURVE('',#183,#181,#227,.T.);
#148=EDGE_CURVE('',#184,#164,#228,.T.);
#149=EDGE_CURVE('',#185,#184,#229,.T.);
#150=EDGE_CURVE('',#185,#166,#230,.T.);
#151=EDGE_CURVE('',#186,#165,#231,.T.);
#152=EDGE_CURVE('',#184,#186,#232,.T.);
#153=EDGE_CURVE('',#187,#167,#233,.T.);
#154=EDGE_CURVE('',#186,#187,#234,.T.);
#155=EDGE_CURVE('',#187,#185,#235,.T.);
#156=VERTEX_POINT('',#503);
#157=VERTEX_POINT('',#504);
#158=VERTEX_POINT('',#506);
#159=VERTEX_POINT('',#508);
#160=VERTEX_POINT('',#512);
#161=VERTEX_POINT('',#514);
#162=VERTEX_POINT('',#518);
#163=VERTEX_POINT('',#520);
#164=VERTEX_POINT('',#524);
#165=VERTEX_POINT('',#525);
#166=VERTEX_POINT('',#527);
#167=VERTEX_POINT('',#529);
#168=VERTEX_POINT('',#534);
#169=VERTEX_POINT('',#535);
#170=VERTEX_POINT('',#537);
#171=VERTEX_POINT('',#539);
#172=VERTEX_POINT('',#544);
#173=VERTEX_POINT('',#545);
#174=VERTEX_POINT('',#547);
#175=VERTEX_POINT('',#549);
#176=VERTEX_POINT('',#553);
#177=VERTEX_POINT('',#555);
#178=VERTEX_POINT('',#559);
#179=VERTEX_POINT('',#561);
#180=VERTEX_POINT('',#570);
#181=VERTEX_POINT('',#572);
#182=VERTEX_POINT('',#576);
#183=VERTEX_POINT('',#580);
#184=VERTEX_POINT('',#587);
#185=VERTEX_POINT('',#589);
#186=VERTEX_POINT('',#593);
#187=VERTEX_POINT('',#597);
#188=LINE('',#502,#236);
#189=LINE('',#505,#237);
#190=LINE('',#507,#238);
#191=LINE('',#509,#239);
#192=LINE('',#511,#240);
#193=LINE('',#513,#241);
#194=LINE('',#515,#242);
#195=LINE('',#517,#243);
#196=LINE('',#519,#244);
#197=LINE('',#521,#245);
#198=LINE('',#523,#246);
#199=LINE('',#526,#247);
#200=LINE('',#528,#248);
#201=LINE('',#530,#249);
#202=LINE('',#531,#250);
#203=LINE('',#533,#251);
#204=LINE('',#536,#252);
#205=LINE('',#538,#253);
#206=LINE('',#540,#254);
#207=LINE('',#541,#255);
#208=LINE('',#543,#256);
#209=LINE('',#546,#257);
#210=LINE('',#548,#258);
#211=LINE('',#550,#259);
#212=LINE('',#552,#260);
#213=LINE('',#554,#261);
#214=LINE('',#556,#262);
#215=LINE('',#558,#263);
#216=LINE('',#560,#264);
#217=LINE('',#562,#265);
#218=LINE('',#564,#266);
#219=LINE('',#565,#267);
#220=LINE('',#569,#268);
#221=LINE('',#571,#269);
#222=LINE('',#573,#270);
#223=LINE('',#575,#271);
#224=LINE('',#577,#272);
#225=LINE('',#579,#273);
#226=LINE('',#581,#274);
#227=LINE('',#583,#275);
#228=LINE('',#586,#276);
#229=LINE('',#588,#277);
#230=LINE('',#590,#278);
#231=LINE('',#592,#279);
#232=LINE('',#594,#280);
#233=LINE('',#596,#281);
#234=LINE('',#598,#282);
#235=LINE('',#600,#283);
#236=VECTOR('',#412,1000.);
#237=VECTOR('',#413,1000.);
#238=VECTOR('',#414,1000.);
#239=VECTOR('',#415,1000.);
#240=VECTOR('',#418,1000.);
#241=VECTOR('',#419,1000.);
#242=VECTOR('',#420,1000.);
#243=VECTOR('',#423,1000.);
#244=VECTOR('',#424,1000.);
#245=VECTOR('',#425,1000.);
#246=VECTOR('',#428,1000.);
#247=VECTOR('',#429,1000.);
#248=VECTOR('',#430,1000.);
#249=VECTOR('',#431,1000.);
#250=VECTOR('',#432,1000.);
#251=VECTOR('',#435,1000.);
#252=VECTOR('',#436,1000.);
#253=VECTOR('',#437,1000.);
#254=VECTOR('',#438,1000.);
#255=VECTOR('',#439,1000.);
#256=VECTOR('',#442,1000.);
#257=VECTOR('',#443,1000.);
#258=VECTOR('',#444,1000.);
#259=VECTOR('',#445,1000.);
#260=VECTOR('',#448,1000.);
#261=VECTOR('',#449,1000.);
#262=VECTOR('',#450,1000.);
#263=VECTOR('',#453,1000.);
#264=VECTOR('',#454,1000.);
#265=VECTOR('',#455,1000.);
#266=VECTOR('',#458,1000.);
#267=VECTOR('',#459,1000.);
#268=VECTOR('',#466,1000.);
#269=VECTOR('',#467,1000.);
#270=VECTOR('',#468,1000.);
#271=VECTOR('',#471,1000.);
#272=VECTOR('',#472,1000.);
#273=VECTOR('',#475,1000.);
#274=VECTOR('',#476,1000.);
#275=VECTOR('',#479,1000.);
#276=VECTOR('',#484,1000.);
#277=VECTOR('',#485,1000.);
#278=VECTOR('',#486,1000.);
#279=VECTOR('',#489,1000.);
#280=VECTOR('',#490,1000.);
#281=VECTOR('',#493,1000.);
#282=VECTOR('',#494,1000.);
#283=VECTOR('',#497,1000.);
#284=EDGE_LOOP('',(#12,#13,#14,#15));
#285=EDGE_LOOP('',(#16,#17,#18,#19));
#286=EDGE_LOOP('',(#20,#21,#22,#23));
#287=EDGE_LOOP('',(#24,#25,#26,#27));
#288=EDGE_LOOP('',(#28,#29,#30,#31));
#289=EDGE_LOOP('',(#32,#33,#34,#35));
#290=EDGE_LOOP('',(#36,#37,#38,#39));
#291=EDGE_LOOP('',(#40,#41,#42,#43));
#292=EDGE_LOOP('',(#44,#45,#46,#47));
#293=EDGE_LOOP('',(#48,#49,#50,#51));
#294=EDGE_LOOP('',(#52,#53,#54,#55));
#295=EDGE_LOOP('',(#56,#57,#58,#59));
#296=EDGE_LOOP('',(#60,#61,#62,#63));
#297=EDGE_LOOP('',(#64,#65,#66,#67));
#298=EDGE_LOOP('',(#68,#69,#70,#71));
#299=EDGE_LOOP('',(#72,#73,#74,#75));
#300=EDGE_LOOP('',(#76,#77,#78,#79));
#301=EDGE_LOOP('',(#80,#81,#82,#83));
#302=EDGE_LOOP('',(#84,#85,#86,#87));
#303=EDGE_LOOP('',(#88,#89,#90,#91));
#304=EDGE_LOOP('',(#92,#93,#94,#95));
#305=EDGE_LOOP('',(#96,#97,#98,#99));
#306=EDGE_LOOP('',(#100,#101,#102,#103));
#307=EDGE_LOOP('',(#104,#105,#106,#107));
#308=FACE_BOUND('',#284,.T.);
#309=FACE_BOUND('',#285,.T.);
#310=FACE_BOUND('',#286,.T.);
#311=FACE_BOUND('',#287,.T.);
#312=FACE_BOUND('',#288,.T.);
#313=FACE_BOUND('',#289,.T.);
#314=FACE_BOUND('',#290,.T.);
#315=FACE_BOUND('',#291,.T.);
#316=FACE_BOUND('',#292,.T.);
#317=FACE_BOUND('',#293,.T.);
#318=FACE_BOUND('',#294,.T.);
#319=FACE_BOUND('',#295,.T.);
#320=FACE_BOUND('',#296,.T.);
#321=FACE_BOUND('',#297,.T.);
#322=FACE_BOUND('',#298,.T.);
#323=FACE_BOUND('',#299,.T.);
#324=FACE_BOUND('',#300,.T.);
#325=FACE_BOUND('',#301,.T.);
#326=FACE_BOUND('',#302,.T.);
#327=FACE_BOUND('',#303,.T.);
#328=FACE_BOUND('',#304,.T.);
#329=FACE_BOUND('',#305,.T.);
#330=FACE_BOUND('',#306,.T.);
#331=FACE_BOUND('',#307,.T.);
#332=PLANE('',#387);
#333=PLANE('',#388);
#334=PLANE('',#389);
#335=PLANE('',#390);
#336=PLANE('',#391);
#337=PLANE('',#392);
#338=PLANE('',#393);
#339=PLANE('',#394);
#340=PLANE('',#395);
#341=PLANE('',#396);
#342=PLANE('',#397);
#343=PLANE('',#398);
#344=PLANE('',#399);
#345=PLANE('',#400);
#346=PLANE('',#401);
#347=PLANE('',#402);
#348=PLANE('',#403);
#349=PLANE('',#404);
#350=PLANE('',#405);
#351=PLANE('',#406);
#352=PLANE('',#407);
#353=ADVANCED_FACE('',(#308),#332,.T.);
#354=ADVANCED_FACE('',(#309),#333,.T.);
#355=ADVANCED_FACE('',(#310),#334,.T.);
#356=ADVANCED_FACE('',(#311,#312),#335,.F.);
#357=ADVANCED_FACE('',(#313,#314),#336,.T.);
#358=ADVANCED_FACE('',(#315),#337,.F.);
#359=ADVANCED_FACE('',(#316),#338,.F.);
#360=ADVANCED_FACE('',(#317),#339,.F.);
#361=ADVANCED_FACE('',(#318),#340,.F.);
#362=ADVANCED_FACE('',(#319),#341,.T.);
#363=ADVANCED_FACE('',(#320,#321),#342,.F.);
#364=ADVANCED_FACE('',(#322),#343,.F.);
#365=ADVANCED_FACE('',(#323),#344,.F.);
#366=ADVANCED_FACE('',(#324),#345,.F.);
#367=ADVANCED_FACE('',(#325),#346,.F.);
#368=ADVANCED_FACE('',(#326),#347,.T.);
#369=ADVANCED_FACE('',(#327),#348,.F.);
#370=ADVANCED_FACE('',(#328),#349,.F.);
#371=ADVANCED_FACE('',(#329),#350,.F.);
#372=ADVANCED_FACE('',(#330),#351,.F.);
#373=ADVANCED_FACE('',(#331),#352,.T.);
#374=CLOSED_SHELL('',(#353,#354,#355,#356,#357,#358,#359,#360,#361,#362,
#363,#364,#365,#366,#367,#368,#369,#370,#371,#372,#373));
#375=STYLED_ITEM('',(#376),#383);
#376=PRESENTATION_STYLE_ASSIGNMENT((#377));
#377=SURFACE_STYLE_USAGE(.BOTH.,#378);
#378=SURFACE_SIDE_STYLE('',(#379));
#379=SURFACE_STYLE_FILL_AREA(#380);
#380=FILL_AREA_STYLE('',(#381));
#381=FILL_AREA_STYLE_COLOUR('',#382);
#382=COLOUR_RGB('',0.645180702209473,0.678915679454803,0.699999988079071);
#383=MANIFOLD_SOLID_BREP('',#374);
#384=SHAPE_DEFINITION_REPRESENTATION(#608,#385);
#385=SHAPE_REPRESENTATION('SNP 7235 D',(#386),#603);
#386=AXIS2_PLACEMENT_3D('',#500,#408,#409);
#387=AXIS2_PLACEMENT_3D('',#501,#410,#411);
#388=AXIS2_PLACEMENT_3D('',#510,#416,#417);
#389=AXIS2_PLACEMENT_3D('',#516,#421,#422);
#390=AXIS2_PLACEMENT_3D('',#522,#426,#427);
#391=AXIS2_PLACEMENT_3D('',#532,#433,#434);
#392=AXIS2_PLACEMENT_3D('',#542,#440,#441);
#393=AXIS2_PLACEMENT_3D('',#551,#446,#447);
#394=AXIS2_PLACEMENT_3D('',#557,#451,#452);
#395=AXIS2_PLACEMENT_3D('',#563,#456,#457);
#396=AXIS2_PLACEMENT_3D('',#566,#460,#461);
#397=AXIS2_PLACEMENT_3D('',#567,#462,#463);
#398=AXIS2_PLACEMENT_3D('',#568,#464,#465);
#399=AXIS2_PLACEMENT_3D('',#574,#469,#470);
#400=AXIS2_PLACEMENT_3D('',#578,#473,#474);
#401=AXIS2_PLACEMENT_3D('',#582,#477,#478);
#402=AXIS2_PLACEMENT_3D('',#584,#480,#481);
#403=AXIS2_PLACEMENT_3D('',#585,#482,#483);
#404=AXIS2_PLACEMENT_3D('',#591,#487,#488);
#405=AXIS2_PLACEMENT_3D('',#595,#491,#492);
#406=AXIS2_PLACEMENT_3D('',#599,#495,#496);
#407=AXIS2_PLACEMENT_3D('',#601,#498,#499);
#408=DIRECTION('',(0.,0.,1.));
#409=DIRECTION('',(1.,0.,0.));
#410=DIRECTION('',(-1.,0.,0.));
#411=DIRECTION('',(0.,0.,1.));
#412=DIRECTION('',(0.,0.,-1.));
#413=DIRECTION('',(0.,-1.,0.));
#414=DIRECTION('',(0.,0.,-1.));
#415=DIRECTION('',(0.,-1.,0.));
#416=DIRECTION('',(1.23908819712629E-16,0.,-1.));
#417=DIRECTION('',(-1.,0.,-1.23908819712629E-16));
#418=DIRECTION('',(1.,0.,1.23908819712629E-16));
#419=DIRECTION('',(1.,0.,1.23908819712629E-16));
#420=DIRECTION('',(0.,-1.,0.));
#421=DIRECTION('',(1.,0.,0.));
#422=DIRECTION('',(0.,0.,-1.));
#423=DIRECTION('',(0.,0.,1.));
#424=DIRECTION('',(0.,0.,1.));
#425=DIRECTION('',(0.,-1.,0.));
#426=DIRECTION('',(0.,-1.,0.));
#427=DIRECTION('',(0.,0.,-1.));
#428=DIRECTION('',(0.,0.,-1.));
#429=DIRECTION('',(1.,0.,0.));
#430=DIRECTION('',(0.,0.,1.));
#431=DIRECTION('',(-1.,0.,0.));
#432=DIRECTION('',(-1.,0.,-1.23908819712629E-16));
#433=DIRECTION('',(0.,-1.,0.));
#434=DIRECTION('',(0.,0.,-1.));
#435=DIRECTION('',(0.,0.,-1.));
#436=DIRECTION('',(-1.,0.,0.));
#437=DIRECTION('',(0.,0.,1.));
#438=DIRECTION('',(1.,0.,0.));
#439=DIRECTION('',(-1.,0.,-1.23908819712629E-16));
#440=DIRECTION('',(1.,0.,0.));
#441=DIRECTION('',(0.,0.,-1.));
#442=DIRECTION('',(0.,-1.,0.));
#443=DIRECTION('',(0.,0.,-1.));
#444=DIRECTION('',(0.,-1.,0.));
#445=DIRECTION('',(0.,0.,-1.));
#446=DIRECTION('',(0.,1.,0.));
#447=DIRECTION('',(0.,0.,1.));
#448=DIRECTION('',(1.,0.,0.));
#449=DIRECTION('',(0.,0.,-1.));
#450=DIRECTION('',(1.,0.,0.));
#451=DIRECTION('',(-1.,0.,0.));
#452=DIRECTION('',(0.,0.,1.));
#453=DIRECTION('',(0.,1.,0.));
#454=DIRECTION('',(0.,0.,-1.));
#455=DIRECTION('',(0.,1.,0.));
#456=DIRECTION('',(0.,-1.,0.));
#457=DIRECTION('',(0.,0.,-1.));
#458=DIRECTION('',(-1.,0.,0.));
#459=DIRECTION('',(-1.,0.,0.));
#460=DIRECTION('',(0.,0.,1.));
#461=DIRECTION('',(1.,0.,0.));
#462=DIRECTION('',(0.,0.,1.));
#463=DIRECTION('',(1.,0.,0.));
#464=DIRECTION('',(-1.,0.,0.));
#465=DIRECTION('',(0.,0.,1.));
#466=DIRECTION('',(0.,-1.,0.));
#467=DIRECTION('',(0.,0.,-1.));
#468=DIRECTION('',(0.,-1.,0.));
#469=DIRECTION('',(0.,0.,-1.));
#470=DIRECTION('',(-1.,0.,0.));
#471=DIRECTION('',(0.,-1.,0.));
#472=DIRECTION('',(1.,0.,0.));
#473=DIRECTION('',(1.,0.,0.));
#474=DIRECTION('',(0.,0.,-1.));
#475=DIRECTION('',(0.,-1.,0.));
#476=DIRECTION('',(0.,0.,1.));
#477=DIRECTION('',(0.,0.,1.));
#478=DIRECTION('',(1.,0.,0.));
#479=DIRECTION('',(-1.,0.,0.));
#480=DIRECTION('',(0.,-1.,0.));
#481=DIRECTION('',(0.,0.,-1.));
#482=DIRECTION('',(0.,0.,1.));
#483=DIRECTION('',(1.,0.,0.));
#484=DIRECTION('',(0.,1.,0.));
#485=DIRECTION('',(1.,0.,0.));
#486=DIRECTION('',(0.,1.,0.));
#487=DIRECTION('',(1.,0.,0.));
#488=DIRECTION('',(0.,0.,-1.));
#489=DIRECTION('',(0.,1.,0.));
#490=DIRECTION('',(0.,0.,-1.));
#491=DIRECTION('',(0.,0.,-1.));
#492=DIRECTION('',(-1.,0.,0.));
#493=DIRECTION('',(0.,1.,0.));
#494=DIRECTION('',(-1.,0.,0.));
#495=DIRECTION('',(-1.,0.,0.));
#496=DIRECTION('',(0.,0.,1.));
#497=DIRECTION('',(0.,0.,1.));
#498=DIRECTION('',(0.,1.,0.));
#499=DIRECTION('',(0.,0.,1.));
#500=CARTESIAN_POINT('',(0.,0.,0.));
#501=CARTESIAN_POINT('',(-168.,45.,93.4999999999999));
#502=CARTESIAN_POINT('',(-168.,0.,93.4999999999999));
#503=CARTESIAN_POINT('',(-168.,0.,93.4999999999999));
#504=CARTESIAN_POINT('',(-168.,0.,-93.5));
#505=CARTESIAN_POINT('',(-168.,45.,93.4999999999999));
#506=CARTESIAN_POINT('',(-168.,45.,93.4999999999999));
#507=CARTESIAN_POINT('',(-168.,45.,93.4999999999999));
#508=CARTESIAN_POINT('',(-168.,45.,-93.5));
#509=CARTESIAN_POINT('',(-168.,45.,-93.5));
#510=CARTESIAN_POINT('',(-168.,45.,-93.5));
#511=CARTESIAN_POINT('',(-168.,0.,-93.5));
#512=CARTESIAN_POINT('',(168.,0.,-93.5));
#513=CARTESIAN_POINT('',(-168.,45.,-93.5));
#514=CARTESIAN_POINT('',(168.,45.,-93.5));
#515=CARTESIAN_POINT('',(168.,45.,-93.5));
#516=CARTESIAN_POINT('',(168.,45.,-93.5));
#517=CARTESIAN_POINT('',(168.,0.,-93.5));
#518=CARTESIAN_POINT('',(168.,0.,93.5));
#519=CARTESIAN_POINT('',(168.,45.,-93.5));
#520=CARTESIAN_POINT('',(168.,45.,93.5));
#521=CARTESIAN_POINT('',(168.,45.,93.5));
#522=CARTESIAN_POINT('',(0.,45.,0.));
#523=CARTESIAN_POINT('',(160.,45.,85.5));
#524=CARTESIAN_POINT('',(160.,45.,85.5));
#525=CARTESIAN_POINT('',(160.,45.,-85.5));
#526=CARTESIAN_POINT('',(-160.,45.,85.5));
#527=CARTESIAN_POINT('',(-160.,45.,85.5));
#528=CARTESIAN_POINT('',(-160.,45.,-85.5));
#529=CARTESIAN_POINT('',(-160.,45.,-85.5));
#530=CARTESIAN_POINT('',(160.,45.,-85.5));
#531=CARTESIAN_POINT('',(168.,45.,93.5));
#532=CARTESIAN_POINT('',(0.,0.,0.));
#533=CARTESIAN_POINT('',(-160.,0.,85.5));
#534=CARTESIAN_POINT('',(-160.,0.,85.5));
#535=CARTESIAN_POINT('',(-160.,0.,-85.5));
#536=CARTESIAN_POINT('',(160.,0.,85.5));
#537=CARTESIAN_POINT('',(160.,0.,85.5));
#538=CARTESIAN_POINT('',(160.,0.,-85.5));
#539=CARTESIAN_POINT('',(160.,0.,-85.5));
#540=CARTESIAN_POINT('',(-160.,0.,-85.5));
#541=CARTESIAN_POINT('',(168.,0.,93.5));
#542=CARTESIAN_POINT('',(-174.,47.5,121.5));
#543=CARTESIAN_POINT('',(-174.,47.5,93.5));
#544=CARTESIAN_POINT('',(-174.,47.5,93.5));
#545=CARTESIAN_POINT('',(-174.,-2.50000000000002,93.5));
#546=CARTESIAN_POINT('',(-174.,-2.50000000000002,121.5));
#547=CARTESIAN_POINT('',(-174.,-2.50000000000002,121.5));
#548=CARTESIAN_POINT('',(-174.,47.5,121.5));
#549=CARTESIAN_POINT('',(-174.,47.5,121.5));
#550=CARTESIAN_POINT('',(-174.,47.5,121.5));
#551=CARTESIAN_POINT('',(-174.,-2.50000000000002,121.5));
#552=CARTESIAN_POINT('',(-174.,-2.50000000000002,93.5));
#553=CARTESIAN_POINT('',(174.,-2.50000000000002,93.5));
#554=CARTESIAN_POINT('',(174.,-2.50000000000002,121.5));
#555=CARTESIAN_POINT('',(174.,-2.50000000000002,121.5));
#556=CARTESIAN_POINT('',(-174.,-2.50000000000002,121.5));
#557=CARTESIAN_POINT('',(174.,-2.50000000000002,121.5));
#558=CARTESIAN_POINT('',(174.,-2.50000000000002,93.5));
#559=CARTESIAN_POINT('',(174.,47.5,93.5));
#560=CARTESIAN_POINT('',(174.,47.5,121.5));
#561=CARTESIAN_POINT('',(174.,47.5,121.5));
#562=CARTESIAN_POINT('',(174.,-2.50000000000002,121.5));
#563=CARTESIAN_POINT('',(174.,47.5,121.5));
#564=CARTESIAN_POINT('',(174.,47.5,93.5));
#565=CARTESIAN_POINT('',(174.,47.5,121.5));
#566=CARTESIAN_POINT('',(0.,0.,121.5));
#567=CARTESIAN_POINT('',(0.,0.,93.5));
#568=CARTESIAN_POINT('',(-160.,1.,85.5));
#569=CARTESIAN_POINT('',(-160.,1.,-85.5));
#570=CARTESIAN_POINT('',(-160.,1.,-85.5));
#571=CARTESIAN_POINT('',(-160.,1.,85.5));
#572=CARTESIAN_POINT('',(-160.,1.,85.5));
#573=CARTESIAN_POINT('',(-160.,1.,85.5));
#574=CARTESIAN_POINT('',(-160.,1.,-85.5));
#575=CARTESIAN_POINT('',(160.,1.,-85.5));
#576=CARTESIAN_POINT('',(160.,1.,-85.5));
#577=CARTESIAN_POINT('',(-160.,1.,-85.5));
#578=CARTESIAN_POINT('',(160.,1.,-85.5));
#579=CARTESIAN_POINT('',(160.,1.,85.5));
#580=CARTESIAN_POINT('',(160.,1.,85.5));
#581=CARTESIAN_POINT('',(160.,1.,-85.5));
#582=CARTESIAN_POINT('',(160.,1.,85.5));
#583=CARTESIAN_POINT('',(160.,1.,85.5));
#584=CARTESIAN_POINT('',(0.,1.,0.));
#585=CARTESIAN_POINT('',(-160.,44.,85.5));
#586=CARTESIAN_POINT('',(160.,44.,85.5));
#587=CARTESIAN_POINT('',(160.,44.,85.5));
#588=CARTESIAN_POINT('',(-160.,44.,85.5));
#589=CARTESIAN_POINT('',(-160.,44.,85.5));
#590=CARTESIAN_POINT('',(-160.,44.,85.5));
#591=CARTESIAN_POINT('',(160.,44.,85.5));
#592=CARTESIAN_POINT('',(160.,44.,-85.5));
#593=CARTESIAN_POINT('',(160.,44.,-85.5));
#594=CARTESIAN_POINT('',(160.,44.,85.5));
#595=CARTESIAN_POINT('',(160.,44.,-85.5));
#596=CARTESIAN_POINT('',(-160.,44.,-85.5));
#597=CARTESIAN_POINT('',(-160.,44.,-85.5));
#598=CARTESIAN_POINT('',(160.,44.,-85.5));
#599=CARTESIAN_POINT('',(-160.,44.,-85.5));
#600=CARTESIAN_POINT('',(-160.,44.,-85.5));
#601=CARTESIAN_POINT('',(0.,44.,0.));
#602=MECHANICAL_DESIGN_GEOMETRIC_PRESENTATION_REPRESENTATION('',(#375),
#603);
#603=(
GEOMETRIC_REPRESENTATION_CONTEXT(3)
GLOBAL_UNCERTAINTY_ASSIGNED_CONTEXT((#604))
GLOBAL_UNIT_ASSIGNED_CONTEXT((#607,#606,#605))
REPRESENTATION_CONTEXT('SNP 7235 D','TOP_LEVEL_ASSEMBLY_PART')
);
#604=UNCERTAINTY_MEASURE_WITH_UNIT(LENGTH_MEASURE(0.005),#607,
'DISTANCE_ACCURACY_VALUE','Maximum Tolerance applied to model');
#605=(
NAMED_UNIT(*)
SI_UNIT($,.STERADIAN.)
SOLID_ANGLE_UNIT()
);
#606=(
NAMED_UNIT(*)
PLANE_ANGLE_UNIT()
SI_UNIT($,.RADIAN.)
);
#607=(
LENGTH_UNIT()
NAMED_UNIT(*)
SI_UNIT(.MILLI.,.METRE.)
);
#608=PRODUCT_DEFINITION_SHAPE('','',#609);
#609=PRODUCT_DEFINITION('','',#611,#610);
#610=PRODUCT_DEFINITION_CONTEXT('',#617,'design');
#611=PRODUCT_DEFINITION_FORMATION_WITH_SPECIFIED_SOURCE('','',#613,
 .NOT_KNOWN.);
#612=PRODUCT_RELATED_PRODUCT_CATEGORY('','',(#613));
#613=PRODUCT('SNP 7235 D','SNP 7235 D','SNP 7235 D',(#615));
#614=PRODUCT_CATEGORY('','');
#615=PRODUCT_CONTEXT('',#617,'mechanical');
#616=APPLICATION_PROTOCOL_DEFINITION('international standard',
'ap242_managed_model_based_3d_engineering',2011,#617);
#617=APPLICATION_CONTEXT('managed model based 3d engineering');
ENDSEC;
END-ISO-10303-21;
