ISO-10303-21;
HEADER;
/* Generated by software containing ST-Developer
 * from STEP Tools, Inc. (www.steptools.com) 
 */
/* OPTION: strings as raw bytes, not using required /X/ escapes */

FILE_DESCRIPTION(
/* description */ ('Unknown'),
/* implementation_level */ '2;1');

FILE_NAME(
/* name */ 'SNP 7260 D',
/* time_stamp */ '2020-06-16T10:55:07+02:00',
/* author */ ('Unknown'),
/* organization */ ('Unknown'),
/* preprocessor_version */ 'ST-DEVELOPER v16.7',
/* originating_system */ 'Solid Edge',
/* authorisation */ 'Unknown');

FILE_SCHEMA (('AUTOMOTIVE_DESIGN {1 0 10303 214 3 1 1}'));
ENDSEC;

DATA;
#10=PROPERTY_DEFINITION_REPRESENTATION(#14,#12);
#11=PROPERTY_DEFINITION_REPRESENTATION(#15,#13);
#12=REPRESENTATION('',(#16),#611);
#13=REPRESENTATION('',(#17),#611);
#14=PROPERTY_DEFINITION('pmi validation property','',#616);
#15=PROPERTY_DEFINITION('pmi validation property','',#616);
#16=VALUE_REPRESENTATION_ITEM('number of annotations',COUNT_MEASURE(0.));
#17=VALUE_REPRESENTATION_ITEM('number of views',COUNT_MEASURE(0.));
#18=SHAPE_REPRESENTATION_RELATIONSHIP('','',#393,#19);
#19=ADVANCED_BREP_SHAPE_REPRESENTATION('',(#391),#611);
#20=ORIENTED_EDGE('',*,*,#116,.F.);
#21=ORIENTED_EDGE('',*,*,#117,.F.);
#22=ORIENTED_EDGE('',*,*,#118,.F.);
#23=ORIENTED_EDGE('',*,*,#119,.F.);
#24=ORIENTED_EDGE('',*,*,#120,.T.);
#25=ORIENTED_EDGE('',*,*,#121,.T.);
#26=ORIENTED_EDGE('',*,*,#122,.T.);
#27=ORIENTED_EDGE('',*,*,#123,.T.);
#28=ORIENTED_EDGE('',*,*,#124,.F.);
#29=ORIENTED_EDGE('',*,*,#125,.F.);
#30=ORIENTED_EDGE('',*,*,#116,.T.);
#31=ORIENTED_EDGE('',*,*,#126,.T.);
#32=ORIENTED_EDGE('',*,*,#127,.F.);
#33=ORIENTED_EDGE('',*,*,#128,.F.);
#34=ORIENTED_EDGE('',*,*,#129,.F.);
#35=ORIENTED_EDGE('',*,*,#130,.F.);
#36=ORIENTED_EDGE('',*,*,#131,.F.);
#37=ORIENTED_EDGE('',*,*,#126,.F.);
#38=ORIENTED_EDGE('',*,*,#119,.T.);
#39=ORIENTED_EDGE('',*,*,#132,.T.);
#40=ORIENTED_EDGE('',*,*,#133,.F.);
#41=ORIENTED_EDGE('',*,*,#132,.F.);
#42=ORIENTED_EDGE('',*,*,#118,.T.);
#43=ORIENTED_EDGE('',*,*,#134,.T.);
#44=ORIENTED_EDGE('',*,*,#135,.F.);
#45=ORIENTED_EDGE('',*,*,#134,.F.);
#46=ORIENTED_EDGE('',*,*,#117,.T.);
#47=ORIENTED_EDGE('',*,*,#125,.T.);
#48=ORIENTED_EDGE('',*,*,#136,.F.);
#49=ORIENTED_EDGE('',*,*,#137,.F.);
#50=ORIENTED_EDGE('',*,*,#138,.F.);
#51=ORIENTED_EDGE('',*,*,#139,.F.);
#52=ORIENTED_EDGE('',*,*,#124,.T.);
#53=ORIENTED_EDGE('',*,*,#131,.T.);
#54=ORIENTED_EDGE('',*,*,#133,.T.);
#55=ORIENTED_EDGE('',*,*,#135,.T.);
#56=ORIENTED_EDGE('',*,*,#127,.T.);
#57=ORIENTED_EDGE('',*,*,#140,.F.);
#58=ORIENTED_EDGE('',*,*,#141,.F.);
#59=ORIENTED_EDGE('',*,*,#142,.T.);
#60=ORIENTED_EDGE('',*,*,#130,.T.);
#61=ORIENTED_EDGE('',*,*,#143,.F.);
#62=ORIENTED_EDGE('',*,*,#144,.F.);
#63=ORIENTED_EDGE('',*,*,#140,.T.);
#64=ORIENTED_EDGE('',*,*,#129,.T.);
#65=ORIENTED_EDGE('',*,*,#145,.F.);
#66=ORIENTED_EDGE('',*,*,#146,.F.);
#67=ORIENTED_EDGE('',*,*,#143,.T.);
#68=ORIENTED_EDGE('',*,*,#128,.T.);
#69=ORIENTED_EDGE('',*,*,#142,.F.);
#70=ORIENTED_EDGE('',*,*,#147,.F.);
#71=ORIENTED_EDGE('',*,*,#145,.T.);
#72=ORIENTED_EDGE('',*,*,#141,.T.);
#73=ORIENTED_EDGE('',*,*,#144,.T.);
#74=ORIENTED_EDGE('',*,*,#146,.T.);
#75=ORIENTED_EDGE('',*,*,#147,.T.);
#76=ORIENTED_EDGE('',*,*,#136,.T.);
#77=ORIENTED_EDGE('',*,*,#148,.F.);
#78=ORIENTED_EDGE('',*,*,#149,.F.);
#79=ORIENTED_EDGE('',*,*,#150,.T.);
#80=ORIENTED_EDGE('',*,*,#139,.T.);
#81=ORIENTED_EDGE('',*,*,#151,.F.);
#82=ORIENTED_EDGE('',*,*,#152,.F.);
#83=ORIENTED_EDGE('',*,*,#148,.T.);
#84=ORIENTED_EDGE('',*,*,#138,.T.);
#85=ORIENTED_EDGE('',*,*,#153,.F.);
#86=ORIENTED_EDGE('',*,*,#154,.F.);
#87=ORIENTED_EDGE('',*,*,#151,.T.);
#88=ORIENTED_EDGE('',*,*,#137,.T.);
#89=ORIENTED_EDGE('',*,*,#150,.F.);
#90=ORIENTED_EDGE('',*,*,#155,.F.);
#91=ORIENTED_EDGE('',*,*,#153,.T.);
#92=ORIENTED_EDGE('',*,*,#149,.T.);
#93=ORIENTED_EDGE('',*,*,#152,.T.);
#94=ORIENTED_EDGE('',*,*,#154,.T.);
#95=ORIENTED_EDGE('',*,*,#155,.T.);
#96=ORIENTED_EDGE('',*,*,#120,.F.);
#97=ORIENTED_EDGE('',*,*,#156,.F.);
#98=ORIENTED_EDGE('',*,*,#157,.T.);
#99=ORIENTED_EDGE('',*,*,#158,.T.);
#100=ORIENTED_EDGE('',*,*,#121,.F.);
#101=ORIENTED_EDGE('',*,*,#158,.F.);
#102=ORIENTED_EDGE('',*,*,#159,.T.);
#103=ORIENTED_EDGE('',*,*,#160,.T.);
#104=ORIENTED_EDGE('',*,*,#122,.F.);
#105=ORIENTED_EDGE('',*,*,#160,.F.);
#106=ORIENTED_EDGE('',*,*,#161,.T.);
#107=ORIENTED_EDGE('',*,*,#162,.T.);
#108=ORIENTED_EDGE('',*,*,#123,.F.);
#109=ORIENTED_EDGE('',*,*,#162,.F.);
#110=ORIENTED_EDGE('',*,*,#163,.T.);
#111=ORIENTED_EDGE('',*,*,#156,.T.);
#112=ORIENTED_EDGE('',*,*,#157,.F.);
#113=ORIENTED_EDGE('',*,*,#163,.F.);
#114=ORIENTED_EDGE('',*,*,#161,.F.);
#115=ORIENTED_EDGE('',*,*,#159,.F.);
#116=EDGE_CURVE('',#164,#165,#196,.T.);
#117=EDGE_CURVE('',#166,#164,#197,.T.);
#118=EDGE_CURVE('',#167,#166,#198,.T.);
#119=EDGE_CURVE('',#165,#167,#199,.T.);
#120=EDGE_CURVE('',#168,#169,#200,.T.);
#121=EDGE_CURVE('',#169,#170,#201,.T.);
#122=EDGE_CURVE('',#170,#171,#202,.T.);
#123=EDGE_CURVE('',#171,#168,#203,.T.);
#124=EDGE_CURVE('',#172,#173,#204,.T.);
#125=EDGE_CURVE('',#164,#172,#205,.T.);
#126=EDGE_CURVE('',#165,#173,#206,.T.);
#127=EDGE_CURVE('',#174,#175,#207,.T.);
#128=EDGE_CURVE('',#176,#174,#208,.T.);
#129=EDGE_CURVE('',#177,#176,#209,.T.);
#130=EDGE_CURVE('',#175,#177,#210,.T.);
#131=EDGE_CURVE('',#173,#178,#211,.T.);
#132=EDGE_CURVE('',#167,#178,#212,.T.);
#133=EDGE_CURVE('',#178,#179,#213,.T.);
#134=EDGE_CURVE('',#166,#179,#214,.T.);
#135=EDGE_CURVE('',#179,#172,#215,.T.);
#136=EDGE_CURVE('',#180,#181,#216,.T.);
#137=EDGE_CURVE('',#182,#180,#217,.T.);
#138=EDGE_CURVE('',#183,#182,#218,.T.);
#139=EDGE_CURVE('',#181,#183,#219,.T.);
#140=EDGE_CURVE('',#184,#175,#220,.T.);
#141=EDGE_CURVE('',#185,#184,#221,.T.);
#142=EDGE_CURVE('',#185,#174,#222,.T.);
#143=EDGE_CURVE('',#186,#177,#223,.T.);
#144=EDGE_CURVE('',#184,#186,#224,.T.);
#145=EDGE_CURVE('',#187,#176,#225,.T.);
#146=EDGE_CURVE('',#186,#187,#226,.T.);
#147=EDGE_CURVE('',#187,#185,#227,.T.);
#148=EDGE_CURVE('',#188,#181,#228,.T.);
#149=EDGE_CURVE('',#189,#188,#229,.T.);
#150=EDGE_CURVE('',#189,#180,#230,.T.);
#151=EDGE_CURVE('',#190,#183,#231,.T.);
#152=EDGE_CURVE('',#188,#190,#232,.T.);
#153=EDGE_CURVE('',#191,#182,#233,.T.);
#154=EDGE_CURVE('',#190,#191,#234,.T.);
#155=EDGE_CURVE('',#191,#189,#235,.T.);
#156=EDGE_CURVE('',#192,#168,#236,.T.);
#157=EDGE_CURVE('',#192,#193,#237,.T.);
#158=EDGE_CURVE('',#193,#169,#238,.T.);
#159=EDGE_CURVE('',#193,#194,#239,.T.);
#160=EDGE_CURVE('',#194,#170,#240,.T.);
#161=EDGE_CURVE('',#194,#195,#241,.T.);
#162=EDGE_CURVE('',#195,#171,#242,.T.);
#163=EDGE_CURVE('',#195,#192,#243,.T.);
#164=VERTEX_POINT('',#511);
#165=VERTEX_POINT('',#512);
#166=VERTEX_POINT('',#514);
#167=VERTEX_POINT('',#516);
#168=VERTEX_POINT('',#519);
#169=VERTEX_POINT('',#520);
#170=VERTEX_POINT('',#522);
#171=VERTEX_POINT('',#524);
#172=VERTEX_POINT('',#528);
#173=VERTEX_POINT('',#529);
#174=VERTEX_POINT('',#534);
#175=VERTEX_POINT('',#535);
#176=VERTEX_POINT('',#537);
#177=VERTEX_POINT('',#539);
#178=VERTEX_POINT('',#542);
#179=VERTEX_POINT('',#546);
#180=VERTEX_POINT('',#552);
#181=VERTEX_POINT('',#553);
#182=VERTEX_POINT('',#555);
#183=VERTEX_POINT('',#557);
#184=VERTEX_POINT('',#561);
#185=VERTEX_POINT('',#563);
#186=VERTEX_POINT('',#567);
#187=VERTEX_POINT('',#571);
#188=VERTEX_POINT('',#578);
#189=VERTEX_POINT('',#580);
#190=VERTEX_POINT('',#584);
#191=VERTEX_POINT('',#588);
#192=VERTEX_POINT('',#595);
#193=VERTEX_POINT('',#597);
#194=VERTEX_POINT('',#601);
#195=VERTEX_POINT('',#605);
#196=LINE('',#510,#244);
#197=LINE('',#513,#245);
#198=LINE('',#515,#246);
#199=LINE('',#517,#247);
#200=LINE('',#518,#248);
#201=LINE('',#521,#249);
#202=LINE('',#523,#250);
#203=LINE('',#525,#251);
#204=LINE('',#527,#252);
#205=LINE('',#530,#253);
#206=LINE('',#531,#254);
#207=LINE('',#533,#255);
#208=LINE('',#536,#256);
#209=LINE('',#538,#257);
#210=LINE('',#540,#258);
#211=LINE('',#541,#259);
#212=LINE('',#543,#260);
#213=LINE('',#545,#261);
#214=LINE('',#547,#262);
#215=LINE('',#549,#263);
#216=LINE('',#551,#264);
#217=LINE('',#554,#265);
#218=LINE('',#556,#266);
#219=LINE('',#558,#267);
#220=LINE('',#560,#268);
#221=LINE('',#562,#269);
#222=LINE('',#564,#270);
#223=LINE('',#566,#271);
#224=LINE('',#568,#272);
#225=LINE('',#570,#273);
#226=LINE('',#572,#274);
#227=LINE('',#574,#275);
#228=LINE('',#577,#276);
#229=LINE('',#579,#277);
#230=LINE('',#581,#278);
#231=LINE('',#583,#279);
#232=LINE('',#585,#280);
#233=LINE('',#587,#281);
#234=LINE('',#589,#282);
#235=LINE('',#591,#283);
#236=LINE('',#594,#284);
#237=LINE('',#596,#285);
#238=LINE('',#598,#286);
#239=LINE('',#600,#287);
#240=LINE('',#602,#288);
#241=LINE('',#604,#289);
#242=LINE('',#606,#290);
#243=LINE('',#608,#291);
#244=VECTOR('',#420,1000.);
#245=VECTOR('',#421,1000.);
#246=VECTOR('',#422,1000.);
#247=VECTOR('',#423,1000.);
#248=VECTOR('',#424,1000.);
#249=VECTOR('',#425,1000.);
#250=VECTOR('',#426,1000.);
#251=VECTOR('',#427,1000.);
#252=VECTOR('',#430,1000.);
#253=VECTOR('',#431,1000.);
#254=VECTOR('',#432,1000.);
#255=VECTOR('',#435,1000.);
#256=VECTOR('',#436,1000.);
#257=VECTOR('',#437,1000.);
#258=VECTOR('',#438,1000.);
#259=VECTOR('',#439,1000.);
#260=VECTOR('',#440,1000.);
#261=VECTOR('',#443,1000.);
#262=VECTOR('',#444,1000.);
#263=VECTOR('',#447,1000.);
#264=VECTOR('',#450,1000.);
#265=VECTOR('',#451,1000.);
#266=VECTOR('',#452,1000.);
#267=VECTOR('',#453,1000.);
#268=VECTOR('',#456,1000.);
#269=VECTOR('',#457,1000.);
#270=VECTOR('',#458,1000.);
#271=VECTOR('',#461,1000.);
#272=VECTOR('',#462,1000.);
#273=VECTOR('',#465,1000.);
#274=VECTOR('',#466,1000.);
#275=VECTOR('',#469,1000.);
#276=VECTOR('',#474,1000.);
#277=VECTOR('',#475,1000.);
#278=VECTOR('',#476,1000.);
#279=VECTOR('',#479,1000.);
#280=VECTOR('',#480,1000.);
#281=VECTOR('',#483,1000.);
#282=VECTOR('',#484,1000.);
#283=VECTOR('',#487,1000.);
#284=VECTOR('',#492,1000.);
#285=VECTOR('',#493,1000.);
#286=VECTOR('',#494,1000.);
#287=VECTOR('',#497,1000.);
#288=VECTOR('',#498,1000.);
#289=VECTOR('',#501,1000.);
#290=VECTOR('',#502,1000.);
#291=VECTOR('',#505,1000.);
#292=EDGE_LOOP('',(#20,#21,#22,#23));
#293=EDGE_LOOP('',(#24,#25,#26,#27));
#294=EDGE_LOOP('',(#28,#29,#30,#31));
#295=EDGE_LOOP('',(#32,#33,#34,#35));
#296=EDGE_LOOP('',(#36,#37,#38,#39));
#297=EDGE_LOOP('',(#40,#41,#42,#43));
#298=EDGE_LOOP('',(#44,#45,#46,#47));
#299=EDGE_LOOP('',(#48,#49,#50,#51));
#300=EDGE_LOOP('',(#52,#53,#54,#55));
#301=EDGE_LOOP('',(#56,#57,#58,#59));
#302=EDGE_LOOP('',(#60,#61,#62,#63));
#303=EDGE_LOOP('',(#64,#65,#66,#67));
#304=EDGE_LOOP('',(#68,#69,#70,#71));
#305=EDGE_LOOP('',(#72,#73,#74,#75));
#306=EDGE_LOOP('',(#76,#77,#78,#79));
#307=EDGE_LOOP('',(#80,#81,#82,#83));
#308=EDGE_LOOP('',(#84,#85,#86,#87));
#309=EDGE_LOOP('',(#88,#89,#90,#91));
#310=EDGE_LOOP('',(#92,#93,#94,#95));
#311=EDGE_LOOP('',(#96,#97,#98,#99));
#312=EDGE_LOOP('',(#100,#101,#102,#103));
#313=EDGE_LOOP('',(#104,#105,#106,#107));
#314=EDGE_LOOP('',(#108,#109,#110,#111));
#315=EDGE_LOOP('',(#112,#113,#114,#115));
#316=FACE_BOUND('',#292,.T.);
#317=FACE_BOUND('',#293,.T.);
#318=FACE_BOUND('',#294,.T.);
#319=FACE_BOUND('',#295,.T.);
#320=FACE_BOUND('',#296,.T.);
#321=FACE_BOUND('',#297,.T.);
#322=FACE_BOUND('',#298,.T.);
#323=FACE_BOUND('',#299,.T.);
#324=FACE_BOUND('',#300,.T.);
#325=FACE_BOUND('',#301,.T.);
#326=FACE_BOUND('',#302,.T.);
#327=FACE_BOUND('',#303,.T.);
#328=FACE_BOUND('',#304,.T.);
#329=FACE_BOUND('',#305,.T.);
#330=FACE_BOUND('',#306,.T.);
#331=FACE_BOUND('',#307,.T.);
#332=FACE_BOUND('',#308,.T.);
#333=FACE_BOUND('',#309,.T.);
#334=FACE_BOUND('',#310,.T.);
#335=FACE_BOUND('',#311,.T.);
#336=FACE_BOUND('',#312,.T.);
#337=FACE_BOUND('',#313,.T.);
#338=FACE_BOUND('',#314,.T.);
#339=FACE_BOUND('',#315,.T.);
#340=PLANE('',#395);
#341=PLANE('',#396);
#342=PLANE('',#397);
#343=PLANE('',#398);
#344=PLANE('',#399);
#345=PLANE('',#400);
#346=PLANE('',#401);
#347=PLANE('',#402);
#348=PLANE('',#403);
#349=PLANE('',#404);
#350=PLANE('',#405);
#351=PLANE('',#406);
#352=PLANE('',#407);
#353=PLANE('',#408);
#354=PLANE('',#409);
#355=PLANE('',#410);
#356=PLANE('',#411);
#357=PLANE('',#412);
#358=PLANE('',#413);
#359=PLANE('',#414);
#360=PLANE('',#415);
#361=ADVANCED_FACE('',(#316,#317),#340,.F.);
#362=ADVANCED_FACE('',(#318),#341,.T.);
#363=ADVANCED_FACE('',(#319,#320),#342,.T.);
#364=ADVANCED_FACE('',(#321),#343,.T.);
#365=ADVANCED_FACE('',(#322),#344,.T.);
#366=ADVANCED_FACE('',(#323,#324),#345,.T.);
#367=ADVANCED_FACE('',(#325),#346,.F.);
#368=ADVANCED_FACE('',(#326),#347,.F.);
#369=ADVANCED_FACE('',(#327),#348,.F.);
#370=ADVANCED_FACE('',(#328),#349,.F.);
#371=ADVANCED_FACE('',(#329),#350,.T.);
#372=ADVANCED_FACE('',(#330),#351,.F.);
#373=ADVANCED_FACE('',(#331),#352,.F.);
#374=ADVANCED_FACE('',(#332),#353,.F.);
#375=ADVANCED_FACE('',(#333),#354,.F.);
#376=ADVANCED_FACE('',(#334),#355,.T.);
#377=ADVANCED_FACE('',(#335),#356,.T.);
#378=ADVANCED_FACE('',(#336),#357,.T.);
#379=ADVANCED_FACE('',(#337),#358,.T.);
#380=ADVANCED_FACE('',(#338),#359,.T.);
#381=ADVANCED_FACE('',(#339),#360,.F.);
#382=CLOSED_SHELL('',(#361,#362,#363,#364,#365,#366,#367,#368,#369,#370,
#371,#372,#373,#374,#375,#376,#377,#378,#379,#380,#381));
#383=STYLED_ITEM('',(#384),#391);
#384=PRESENTATION_STYLE_ASSIGNMENT((#385));
#385=SURFACE_STYLE_USAGE(.BOTH.,#386);
#386=SURFACE_SIDE_STYLE('',(#387));
#387=SURFACE_STYLE_FILL_AREA(#388);
#388=FILL_AREA_STYLE('',(#389));
#389=FILL_AREA_STYLE_COLOUR('',#390);
#390=COLOUR_RGB('',0.645180702209473,0.678915679454803,0.699999988079071);
#391=MANIFOLD_SOLID_BREP('',#382);
#392=SHAPE_DEFINITION_REPRESENTATION(#616,#393);
#393=SHAPE_REPRESENTATION('SNP 7260 D',(#394),#611);
#394=AXIS2_PLACEMENT_3D('',#508,#416,#417);
#395=AXIS2_PLACEMENT_3D('',#509,#418,#419);
#396=AXIS2_PLACEMENT_3D('',#526,#428,#429);
#397=AXIS2_PLACEMENT_3D('',#532,#433,#434);
#398=AXIS2_PLACEMENT_3D('',#544,#441,#442);
#399=AXIS2_PLACEMENT_3D('',#548,#445,#446);
#400=AXIS2_PLACEMENT_3D('',#550,#448,#449);
#401=AXIS2_PLACEMENT_3D('',#559,#454,#455);
#402=AXIS2_PLACEMENT_3D('',#565,#459,#460);
#403=AXIS2_PLACEMENT_3D('',#569,#463,#464);
#404=AXIS2_PLACEMENT_3D('',#573,#467,#468);
#405=AXIS2_PLACEMENT_3D('',#575,#470,#471);
#406=AXIS2_PLACEMENT_3D('',#576,#472,#473);
#407=AXIS2_PLACEMENT_3D('',#582,#477,#478);
#408=AXIS2_PLACEMENT_3D('',#586,#481,#482);
#409=AXIS2_PLACEMENT_3D('',#590,#485,#486);
#410=AXIS2_PLACEMENT_3D('',#592,#488,#489);
#411=AXIS2_PLACEMENT_3D('',#593,#490,#491);
#412=AXIS2_PLACEMENT_3D('',#599,#495,#496);
#413=AXIS2_PLACEMENT_3D('',#603,#499,#500);
#414=AXIS2_PLACEMENT_3D('',#607,#503,#504);
#415=AXIS2_PLACEMENT_3D('',#609,#506,#507);
#416=DIRECTION('',(0.,0.,1.));
#417=DIRECTION('',(1.,0.,0.));
#418=DIRECTION('',(0.,-1.,0.));
#419=DIRECTION('',(0.,0.,-1.));
#420=DIRECTION('',(0.,0.,1.));
#421=DIRECTION('',(1.,0.,0.));
#422=DIRECTION('',(0.,0.,-1.));
#423=DIRECTION('',(-1.,0.,0.));
#424=DIRECTION('',(1.,0.,0.));
#425=DIRECTION('',(0.,0.,1.));
#426=DIRECTION('',(-1.,0.,0.));
#427=DIRECTION('',(0.,0.,-1.));
#428=DIRECTION('',(1.,0.,0.));
#429=DIRECTION('',(0.,0.,-1.));
#430=DIRECTION('',(0.,0.,1.));
#431=DIRECTION('',(0.,-1.,0.));
#432=DIRECTION('',(0.,-1.,0.));
#433=DIRECTION('',(0.,0.,1.));
#434=DIRECTION('',(1.,0.,0.));
#435=DIRECTION('',(0.,1.,0.));
#436=DIRECTION('',(1.,0.,0.));
#437=DIRECTION('',(0.,-1.,0.));
#438=DIRECTION('',(-1.,0.,0.));
#439=DIRECTION('',(-1.,0.,0.));
#440=DIRECTION('',(0.,-1.,0.));
#441=DIRECTION('',(-1.,0.,0.));
#442=DIRECTION('',(0.,0.,1.));
#443=DIRECTION('',(0.,0.,-1.));
#444=DIRECTION('',(0.,-1.,0.));
#445=DIRECTION('',(0.,0.,-1.));
#446=DIRECTION('',(-1.,0.,0.));
#447=DIRECTION('',(1.,0.,0.));
#448=DIRECTION('',(0.,-1.,0.));
#449=DIRECTION('',(0.,0.,-1.));
#450=DIRECTION('',(0.,0.,1.));
#451=DIRECTION('',(1.,0.,0.));
#452=DIRECTION('',(0.,0.,-1.));
#453=DIRECTION('',(-1.,0.,0.));
#454=DIRECTION('',(-1.,0.,0.));
#455=DIRECTION('',(0.,0.,1.));
#456=DIRECTION('',(0.,0.,-1.));
#457=DIRECTION('',(0.,1.,0.));
#458=DIRECTION('',(0.,0.,-1.));
#459=DIRECTION('',(0.,-1.,0.));
#460=DIRECTION('',(0.,0.,-1.));
#461=DIRECTION('',(0.,0.,-1.));
#462=DIRECTION('',(-1.,0.,0.));
#463=DIRECTION('',(1.,0.,0.));
#464=DIRECTION('',(0.,0.,-1.));
#465=DIRECTION('',(0.,0.,-1.));
#466=DIRECTION('',(0.,-1.,0.));
#467=DIRECTION('',(0.,1.,0.));
#468=DIRECTION('',(0.,0.,1.));
#469=DIRECTION('',(1.,0.,0.));
#470=DIRECTION('',(0.,0.,1.));
#471=DIRECTION('',(1.,0.,0.));
#472=DIRECTION('',(1.,0.,0.));
#473=DIRECTION('',(0.,0.,-1.));
#474=DIRECTION('',(0.,-1.,0.));
#475=DIRECTION('',(0.,0.,1.));
#476=DIRECTION('',(0.,-1.,0.));
#477=DIRECTION('',(0.,0.,1.));
#478=DIRECTION('',(1.,0.,0.));
#479=DIRECTION('',(0.,-1.,0.));
#480=DIRECTION('',(-1.,0.,0.));
#481=DIRECTION('',(-1.,0.,0.));
#482=DIRECTION('',(0.,0.,1.));
#483=DIRECTION('',(0.,-1.,0.));
#484=DIRECTION('',(0.,0.,-1.));
#485=DIRECTION('',(0.,0.,-1.));
#486=DIRECTION('',(-1.,0.,0.));
#487=DIRECTION('',(1.,0.,0.));
#488=DIRECTION('',(0.,-1.,0.));
#489=DIRECTION('',(0.,0.,-1.));
#490=DIRECTION('',(0.,0.,1.));
#491=DIRECTION('',(1.,0.,0.));
#492=DIRECTION('',(0.,1.,0.));
#493=DIRECTION('',(1.,0.,0.));
#494=DIRECTION('',(0.,1.,0.));
#495=DIRECTION('',(-1.,0.,0.));
#496=DIRECTION('',(0.,0.,1.));
#497=DIRECTION('',(0.,0.,1.));
#498=DIRECTION('',(0.,1.,0.));
#499=DIRECTION('',(0.,0.,-1.));
#500=DIRECTION('',(-1.,0.,0.));
#501=DIRECTION('',(-1.,0.,0.));
#502=DIRECTION('',(0.,1.,0.));
#503=DIRECTION('',(1.,0.,0.));
#504=DIRECTION('',(0.,0.,-1.));
#505=DIRECTION('',(0.,0.,-1.));
#506=DIRECTION('',(0.,-1.,0.));
#507=DIRECTION('',(0.,0.,-1.));
#508=CARTESIAN_POINT('',(0.,0.,0.));
#509=CARTESIAN_POINT('',(0.,80.,0.));
#510=CARTESIAN_POINT('',(312.,80.,-162.));
#511=CARTESIAN_POINT('',(312.,80.,-162.));
#512=CARTESIAN_POINT('',(312.,80.,162.));
#513=CARTESIAN_POINT('',(-312.,80.,-162.));
#514=CARTESIAN_POINT('',(-312.,80.,-162.));
#515=CARTESIAN_POINT('',(-312.,80.,162.));
#516=CARTESIAN_POINT('',(-312.,80.,162.));
#517=CARTESIAN_POINT('',(312.,80.,162.));
#518=CARTESIAN_POINT('',(-301.,80.,-151.));
#519=CARTESIAN_POINT('',(-301.,80.,-151.));
#520=CARTESIAN_POINT('',(301.,80.,-151.));
#521=CARTESIAN_POINT('',(301.,80.,-151.));
#522=CARTESIAN_POINT('',(301.,80.,151.));
#523=CARTESIAN_POINT('',(301.,80.,151.));
#524=CARTESIAN_POINT('',(-301.,80.,151.));
#525=CARTESIAN_POINT('',(-301.,80.,151.));
#526=CARTESIAN_POINT('',(312.,80.,-162.));
#527=CARTESIAN_POINT('',(312.,0.,-162.));
#528=CARTESIAN_POINT('',(312.,0.,-162.));
#529=CARTESIAN_POINT('',(312.,0.,162.));
#530=CARTESIAN_POINT('',(312.,80.,-162.));
#531=CARTESIAN_POINT('',(312.,80.,162.));
#532=CARTESIAN_POINT('',(312.,80.,162.));
#533=CARTESIAN_POINT('',(158.,22.,162.));
#534=CARTESIAN_POINT('',(158.,22.,162.));
#535=CARTESIAN_POINT('',(158.,58.,162.));
#536=CARTESIAN_POINT('',(-158.,22.,162.));
#537=CARTESIAN_POINT('',(-158.,22.,162.));
#538=CARTESIAN_POINT('',(-158.,58.,162.));
#539=CARTESIAN_POINT('',(-158.,58.,162.));
#540=CARTESIAN_POINT('',(158.,58.,162.));
#541=CARTESIAN_POINT('',(312.,0.,162.));
#542=CARTESIAN_POINT('',(-312.,0.,162.));
#543=CARTESIAN_POINT('',(-312.,80.,162.));
#544=CARTESIAN_POINT('',(-312.,80.,162.));
#545=CARTESIAN_POINT('',(-312.,0.,162.));
#546=CARTESIAN_POINT('',(-312.,0.,-162.));
#547=CARTESIAN_POINT('',(-312.,80.,-162.));
#548=CARTESIAN_POINT('',(-312.,80.,-162.));
#549=CARTESIAN_POINT('',(-312.,0.,-162.));
#550=CARTESIAN_POINT('',(0.,0.,0.));
#551=CARTESIAN_POINT('',(301.,0.,-151.));
#552=CARTESIAN_POINT('',(301.,0.,-151.));
#553=CARTESIAN_POINT('',(301.,0.,151.));
#554=CARTESIAN_POINT('',(-301.,0.,-151.));
#555=CARTESIAN_POINT('',(-301.,0.,-151.));
#556=CARTESIAN_POINT('',(-301.,0.,151.));
#557=CARTESIAN_POINT('',(-301.,0.,151.));
#558=CARTESIAN_POINT('',(301.,0.,151.));
#559=CARTESIAN_POINT('',(158.,22.,188.));
#560=CARTESIAN_POINT('',(158.,58.,188.));
#561=CARTESIAN_POINT('',(158.,58.,188.));
#562=CARTESIAN_POINT('',(158.,22.,188.));
#563=CARTESIAN_POINT('',(158.,22.,188.));
#564=CARTESIAN_POINT('',(158.,22.,188.));
#565=CARTESIAN_POINT('',(158.,58.,188.));
#566=CARTESIAN_POINT('',(-158.,58.,188.));
#567=CARTESIAN_POINT('',(-158.,58.,188.));
#568=CARTESIAN_POINT('',(158.,58.,188.));
#569=CARTESIAN_POINT('',(-158.,58.,188.));
#570=CARTESIAN_POINT('',(-158.,22.,188.));
#571=CARTESIAN_POINT('',(-158.,22.,188.));
#572=CARTESIAN_POINT('',(-158.,58.,188.));
#573=CARTESIAN_POINT('',(-158.,22.,188.));
#574=CARTESIAN_POINT('',(-158.,22.,188.));
#575=CARTESIAN_POINT('',(0.,0.,188.));
#576=CARTESIAN_POINT('',(301.,1.,-151.));
#577=CARTESIAN_POINT('',(301.,1.,151.));
#578=CARTESIAN_POINT('',(301.,1.,151.));
#579=CARTESIAN_POINT('',(301.,1.,-151.));
#580=CARTESIAN_POINT('',(301.,1.,-151.));
#581=CARTESIAN_POINT('',(301.,1.,-151.));
#582=CARTESIAN_POINT('',(301.,1.,151.));
#583=CARTESIAN_POINT('',(-301.,1.,151.));
#584=CARTESIAN_POINT('',(-301.,1.,151.));
#585=CARTESIAN_POINT('',(301.,1.,151.));
#586=CARTESIAN_POINT('',(-301.,1.,151.));
#587=CARTESIAN_POINT('',(-301.,1.,-151.));
#588=CARTESIAN_POINT('',(-301.,1.,-151.));
#589=CARTESIAN_POINT('',(-301.,1.,151.));
#590=CARTESIAN_POINT('',(-301.,1.,-151.));
#591=CARTESIAN_POINT('',(-301.,1.,-151.));
#592=CARTESIAN_POINT('',(0.,1.,0.));
#593=CARTESIAN_POINT('',(-301.,79.,-151.));
#594=CARTESIAN_POINT('',(-301.,79.,-151.));
#595=CARTESIAN_POINT('',(-301.,79.,-151.));
#596=CARTESIAN_POINT('',(-301.,79.,-151.));
#597=CARTESIAN_POINT('',(301.,79.,-151.));
#598=CARTESIAN_POINT('',(301.,79.,-151.));
#599=CARTESIAN_POINT('',(301.,79.,-151.));
#600=CARTESIAN_POINT('',(301.,79.,-151.));
#601=CARTESIAN_POINT('',(301.,79.,151.));
#602=CARTESIAN_POINT('',(301.,79.,151.));
#603=CARTESIAN_POINT('',(301.,79.,151.));
#604=CARTESIAN_POINT('',(301.,79.,151.));
#605=CARTESIAN_POINT('',(-301.,79.,151.));
#606=CARTESIAN_POINT('',(-301.,79.,151.));
#607=CARTESIAN_POINT('',(-301.,79.,151.));
#608=CARTESIAN_POINT('',(-301.,79.,151.));
#609=CARTESIAN_POINT('',(0.,79.,0.));
#610=MECHANICAL_DESIGN_GEOMETRIC_PRESENTATION_REPRESENTATION('',(#383),
#611);
#611=(
GEOMETRIC_REPRESENTATION_CONTEXT(3)
GLOBAL_UNCERTAINTY_ASSIGNED_CONTEXT((#612))
GLOBAL_UNIT_ASSIGNED_CONTEXT((#615,#614,#613))
REPRESENTATION_CONTEXT('SNP 7260 D','TOP_LEVEL_ASSEMBLY_PART')
);
#612=UNCERTAINTY_MEASURE_WITH_UNIT(LENGTH_MEASURE(0.005),#615,
'DISTANCE_ACCURACY_VALUE','Maximum Tolerance applied to model');
#613=(
NAMED_UNIT(*)
SI_UNIT($,.STERADIAN.)
SOLID_ANGLE_UNIT()
);
#614=(
NAMED_UNIT(*)
PLANE_ANGLE_UNIT()
SI_UNIT($,.RADIAN.)
);
#615=(
LENGTH_UNIT()
NAMED_UNIT(*)
SI_UNIT(.MILLI.,.METRE.)
);
#616=PRODUCT_DEFINITION_SHAPE('','',#617);
#617=PRODUCT_DEFINITION('','',#619,#618);
#618=PRODUCT_DEFINITION_CONTEXT('',#625,'design');
#619=PRODUCT_DEFINITION_FORMATION_WITH_SPECIFIED_SOURCE('','',#621,
 .NOT_KNOWN.);
#620=PRODUCT_RELATED_PRODUCT_CATEGORY('','',(#621));
#621=PRODUCT('SNP 7260 D','SNP 7260 D','SNP 7260 D',(#623));
#622=PRODUCT_CATEGORY('','');
#623=PRODUCT_CONTEXT('',#625,'mechanical');
#624=APPLICATION_PROTOCOL_DEFINITION('international standard',
'automotive_design',2010,#625);
#625=APPLICATION_CONTEXT(
'core data for automotive mechanical design processes');
ENDSEC;
END-ISO-10303-21;
