ISO-10303-21;
HEADER;
/* Generated by software containing ST-Developer
 * from STEP Tools, Inc. (www.steptools.com) 
 */
/* OPTION: strings as raw bytes, not using required /X/ escapes */

FILE_DESCRIPTION(
/* description */ ('Unknown'),
/* implementation_level */ '2;1');

FILE_NAME(
/* name */ 'SNP 7286 WA LED 230V ',
/* time_stamp */ '2018-06-19T11:17:47+02:00',
/* author */ ('Unknown'),
/* organization */ ('Unknown'),
/* preprocessor_version */ 'ST-DEVELOPER v16.7',
/* originating_system */ 'DEX',
/* authorisation */ $);

FILE_SCHEMA (('AUTOMOTIVE_DESIGN {1 0 10303 214 3 1 1}'));
ENDSEC;

DATA;
#10=PROPERTY_DEFINITION_REPRESENTATION(#14,#12);
#11=PROPERTY_DEFINITION_REPRESENTATION(#15,#13);
#12=REPRESENTATION('',(#16),#575);
#13=REPRESENTATION('',(#17),#575);
#14=PROPERTY_DEFINITION('pmi validation property','',#580);
#15=PROPERTY_DEFINITION('pmi validation property','',#580);
#16=VALUE_REPRESENTATION_ITEM('number of annotations',COUNT_MEASURE(0.));
#17=VALUE_REPRESENTATION_ITEM('number of views',COUNT_MEASURE(0.));
#18=SHAPE_REPRESENTATION_RELATIONSHIP('','',#369,#19);
#19=ADVANCED_BREP_SHAPE_REPRESENTATION('',(#367),#575);
#20=ORIENTED_EDGE('',*,*,#112,.F.);
#21=ORIENTED_EDGE('',*,*,#113,.T.);
#22=ORIENTED_EDGE('',*,*,#114,.T.);
#23=ORIENTED_EDGE('',*,*,#115,.T.);
#24=ORIENTED_EDGE('',*,*,#116,.F.);
#25=ORIENTED_EDGE('',*,*,#117,.T.);
#26=ORIENTED_EDGE('',*,*,#118,.T.);
#27=ORIENTED_EDGE('',*,*,#119,.F.);
#28=ORIENTED_EDGE('',*,*,#114,.F.);
#29=ORIENTED_EDGE('',*,*,#120,.T.);
#30=ORIENTED_EDGE('',*,*,#121,.T.);
#31=ORIENTED_EDGE('',*,*,#122,.T.);
#32=ORIENTED_EDGE('',*,*,#118,.F.);
#33=ORIENTED_EDGE('',*,*,#123,.T.);
#34=ORIENTED_EDGE('',*,*,#124,.T.);
#35=ORIENTED_EDGE('',*,*,#125,.T.);
#36=ORIENTED_EDGE('',*,*,#124,.F.);
#37=ORIENTED_EDGE('',*,*,#126,.T.);
#38=ORIENTED_EDGE('',*,*,#127,.T.);
#39=ORIENTED_EDGE('',*,*,#128,.T.);
#40=ORIENTED_EDGE('',*,*,#127,.F.);
#41=ORIENTED_EDGE('',*,*,#129,.T.);
#42=ORIENTED_EDGE('',*,*,#116,.T.);
#43=ORIENTED_EDGE('',*,*,#130,.T.);
#44=ORIENTED_EDGE('',*,*,#131,.T.);
#45=ORIENTED_EDGE('',*,*,#132,.T.);
#46=ORIENTED_EDGE('',*,*,#133,.T.);
#47=ORIENTED_EDGE('',*,*,#134,.T.);
#48=ORIENTED_EDGE('',*,*,#135,.T.);
#49=ORIENTED_EDGE('',*,*,#136,.T.);
#50=ORIENTED_EDGE('',*,*,#137,.T.);
#51=ORIENTED_EDGE('',*,*,#138,.T.);
#52=ORIENTED_EDGE('',*,*,#139,.F.);
#53=ORIENTED_EDGE('',*,*,#134,.F.);
#54=ORIENTED_EDGE('',*,*,#140,.F.);
#55=ORIENTED_EDGE('',*,*,#126,.F.);
#56=ORIENTED_EDGE('',*,*,#140,.T.);
#57=ORIENTED_EDGE('',*,*,#133,.F.);
#58=ORIENTED_EDGE('',*,*,#141,.F.);
#59=ORIENTED_EDGE('',*,*,#129,.F.);
#60=ORIENTED_EDGE('',*,*,#139,.T.);
#61=ORIENTED_EDGE('',*,*,#123,.F.);
#62=ORIENTED_EDGE('',*,*,#142,.F.);
#63=ORIENTED_EDGE('',*,*,#131,.F.);
#64=ORIENTED_EDGE('',*,*,#141,.T.);
#65=ORIENTED_EDGE('',*,*,#132,.F.);
#66=ORIENTED_EDGE('',*,*,#142,.T.);
#67=ORIENTED_EDGE('',*,*,#117,.F.);
#68=ORIENTED_EDGE('',*,*,#143,.F.);
#69=ORIENTED_EDGE('',*,*,#128,.F.);
#70=ORIENTED_EDGE('',*,*,#144,.F.);
#71=ORIENTED_EDGE('',*,*,#138,.F.);
#72=ORIENTED_EDGE('',*,*,#144,.T.);
#73=ORIENTED_EDGE('',*,*,#130,.F.);
#74=ORIENTED_EDGE('',*,*,#145,.F.);
#75=ORIENTED_EDGE('',*,*,#135,.F.);
#76=ORIENTED_EDGE('',*,*,#143,.T.);
#77=ORIENTED_EDGE('',*,*,#137,.F.);
#78=ORIENTED_EDGE('',*,*,#146,.F.);
#79=ORIENTED_EDGE('',*,*,#125,.F.);
#80=ORIENTED_EDGE('',*,*,#145,.T.);
#81=ORIENTED_EDGE('',*,*,#115,.F.);
#82=ORIENTED_EDGE('',*,*,#146,.T.);
#83=ORIENTED_EDGE('',*,*,#136,.F.);
#84=ORIENTED_EDGE('',*,*,#120,.F.);
#85=ORIENTED_EDGE('',*,*,#113,.F.);
#86=ORIENTED_EDGE('',*,*,#147,.F.);
#87=ORIENTED_EDGE('',*,*,#148,.F.);
#88=ORIENTED_EDGE('',*,*,#149,.T.);
#89=ORIENTED_EDGE('',*,*,#150,.T.);
#90=ORIENTED_EDGE('',*,*,#121,.F.);
#91=ORIENTED_EDGE('',*,*,#150,.F.);
#92=ORIENTED_EDGE('',*,*,#151,.T.);
#93=ORIENTED_EDGE('',*,*,#152,.T.);
#94=ORIENTED_EDGE('',*,*,#122,.F.);
#95=ORIENTED_EDGE('',*,*,#152,.F.);
#96=ORIENTED_EDGE('',*,*,#153,.T.);
#97=ORIENTED_EDGE('',*,*,#154,.T.);
#98=ORIENTED_EDGE('',*,*,#155,.F.);
#99=ORIENTED_EDGE('',*,*,#119,.T.);
#100=ORIENTED_EDGE('',*,*,#148,.T.);
#101=ORIENTED_EDGE('',*,*,#156,.F.);
#102=ORIENTED_EDGE('',*,*,#154,.F.);
#103=ORIENTED_EDGE('',*,*,#157,.T.);
#104=ORIENTED_EDGE('',*,*,#149,.F.);
#105=ORIENTED_EDGE('',*,*,#157,.F.);
#106=ORIENTED_EDGE('',*,*,#153,.F.);
#107=ORIENTED_EDGE('',*,*,#151,.F.);
#108=ORIENTED_EDGE('',*,*,#156,.T.);
#109=ORIENTED_EDGE('',*,*,#147,.T.);
#110=ORIENTED_EDGE('',*,*,#112,.T.);
#111=ORIENTED_EDGE('',*,*,#155,.T.);
#112=EDGE_CURVE('',#158,#159,#186,.T.);
#113=EDGE_CURVE('',#158,#160,#187,.T.);
#114=EDGE_CURVE('',#160,#161,#188,.T.);
#115=EDGE_CURVE('',#161,#162,#189,.T.);
#116=EDGE_CURVE('',#163,#162,#190,.T.);
#117=EDGE_CURVE('',#163,#164,#191,.T.);
#118=EDGE_CURVE('',#164,#165,#192,.T.);
#119=EDGE_CURVE('',#159,#165,#193,.T.);
#120=EDGE_CURVE('',#160,#166,#194,.T.);
#121=EDGE_CURVE('',#166,#167,#195,.T.);
#122=EDGE_CURVE('',#167,#165,#196,.T.);
#123=EDGE_CURVE('',#164,#168,#197,.T.);
#124=EDGE_CURVE('',#168,#169,#198,.T.);
#125=EDGE_CURVE('',#169,#161,#199,.T.);
#126=EDGE_CURVE('',#168,#170,#200,.T.);
#127=EDGE_CURVE('',#170,#171,#201,.T.);
#128=EDGE_CURVE('',#171,#169,#202,.T.);
#129=EDGE_CURVE('',#170,#163,#203,.T.);
#130=EDGE_CURVE('',#162,#171,#204,.T.);
#131=EDGE_CURVE('',#172,#173,#205,.T.);
#132=EDGE_CURVE('',#173,#174,#206,.T.);
#133=EDGE_CURVE('',#174,#175,#207,.T.);
#134=EDGE_CURVE('',#175,#172,#208,.T.);
#135=EDGE_CURVE('',#176,#177,#209,.T.);
#136=EDGE_CURVE('',#177,#178,#210,.T.);
#137=EDGE_CURVE('',#178,#179,#211,.T.);
#138=EDGE_CURVE('',#179,#176,#212,.T.);
#139=EDGE_CURVE('',#172,#168,#213,.T.);
#140=EDGE_CURVE('',#170,#175,#214,.F.);
#141=EDGE_CURVE('',#163,#174,#215,.F.);
#142=EDGE_CURVE('',#173,#164,#216,.F.);
#143=EDGE_CURVE('',#169,#179,#217,.T.);
#144=EDGE_CURVE('',#176,#171,#218,.F.);
#145=EDGE_CURVE('',#177,#162,#219,.F.);
#146=EDGE_CURVE('',#161,#178,#220,.F.);
#147=EDGE_CURVE('',#180,#158,#221,.T.);
#148=EDGE_CURVE('',#181,#180,#222,.T.);
#149=EDGE_CURVE('',#181,#182,#223,.T.);
#150=EDGE_CURVE('',#182,#166,#224,.T.);
#151=EDGE_CURVE('',#182,#183,#225,.T.);
#152=EDGE_CURVE('',#183,#167,#226,.T.);
#153=EDGE_CURVE('',#183,#184,#227,.T.);
#154=EDGE_CURVE('',#184,#185,#228,.T.);
#155=EDGE_CURVE('',#159,#185,#229,.T.);
#156=EDGE_CURVE('',#185,#180,#230,.T.);
#157=EDGE_CURVE('',#184,#181,#231,.T.);
#158=VERTEX_POINT('',#482);
#159=VERTEX_POINT('',#483);
#160=VERTEX_POINT('',#485);
#161=VERTEX_POINT('',#487);
#162=VERTEX_POINT('',#489);
#163=VERTEX_POINT('',#491);
#164=VERTEX_POINT('',#493);
#165=VERTEX_POINT('',#495);
#166=VERTEX_POINT('',#499);
#167=VERTEX_POINT('',#501);
#168=VERTEX_POINT('',#504);
#169=VERTEX_POINT('',#506);
#170=VERTEX_POINT('',#510);
#171=VERTEX_POINT('',#512);
#172=VERTEX_POINT('',#519);
#173=VERTEX_POINT('',#520);
#174=VERTEX_POINT('',#522);
#175=VERTEX_POINT('',#524);
#176=VERTEX_POINT('',#528);
#177=VERTEX_POINT('',#529);
#178=VERTEX_POINT('',#531);
#179=VERTEX_POINT('',#533);
#180=VERTEX_POINT('',#553);
#181=VERTEX_POINT('',#555);
#182=VERTEX_POINT('',#557);
#183=VERTEX_POINT('',#561);
#184=VERTEX_POINT('',#565);
#185=VERTEX_POINT('',#567);
#186=LINE('',#481,#232);
#187=LINE('',#484,#233);
#188=LINE('',#486,#234);
#189=LINE('',#488,#235);
#190=LINE('',#490,#236);
#191=LINE('',#492,#237);
#192=LINE('',#494,#238);
#193=LINE('',#496,#239);
#194=LINE('',#498,#240);
#195=LINE('',#500,#241);
#196=LINE('',#502,#242);
#197=LINE('',#503,#243);
#198=LINE('',#505,#244);
#199=LINE('',#507,#245);
#200=LINE('',#509,#246);
#201=LINE('',#511,#247);
#202=LINE('',#513,#248);
#203=LINE('',#515,#249);
#204=LINE('',#516,#250);
#205=LINE('',#518,#251);
#206=LINE('',#521,#252);
#207=LINE('',#523,#253);
#208=LINE('',#525,#254);
#209=LINE('',#527,#255);
#210=LINE('',#530,#256);
#211=LINE('',#532,#257);
#212=LINE('',#534,#258);
#213=LINE('',#536,#259);
#214=LINE('',#537,#260);
#215=LINE('',#539,#261);
#216=LINE('',#541,#262);
#217=LINE('',#544,#263);
#218=LINE('',#545,#264);
#219=LINE('',#547,#265);
#220=LINE('',#549,#266);
#221=LINE('',#552,#267);
#222=LINE('',#554,#268);
#223=LINE('',#556,#269);
#224=LINE('',#558,#270);
#225=LINE('',#560,#271);
#226=LINE('',#562,#272);
#227=LINE('',#564,#273);
#228=LINE('',#566,#274);
#229=LINE('',#568,#275);
#230=LINE('',#570,#276);
#231=LINE('',#571,#277);
#232=VECTOR('',#395,1000.);
#233=VECTOR('',#396,1000.);
#234=VECTOR('',#397,1000.);
#235=VECTOR('',#398,1000.);
#236=VECTOR('',#399,1000.);
#237=VECTOR('',#400,1000.);
#238=VECTOR('',#401,1000.);
#239=VECTOR('',#402,1000.);
#240=VECTOR('',#405,1000.);
#241=VECTOR('',#406,1000.);
#242=VECTOR('',#407,1000.);
#243=VECTOR('',#408,1000.);
#244=VECTOR('',#409,1000.);
#245=VECTOR('',#410,1000.);
#246=VECTOR('',#413,1000.);
#247=VECTOR('',#414,1000.);
#248=VECTOR('',#415,1000.);
#249=VECTOR('',#418,1000.);
#250=VECTOR('',#419,1000.);
#251=VECTOR('',#422,1000.);
#252=VECTOR('',#423,1000.);
#253=VECTOR('',#424,1000.);
#254=VECTOR('',#425,1000.);
#255=VECTOR('',#428,1000.);
#256=VECTOR('',#429,1000.);
#257=VECTOR('',#430,1000.);
#258=VECTOR('',#431,1000.);
#259=VECTOR('',#434,1000.);
#260=VECTOR('',#435,1000.);
#261=VECTOR('',#438,1000.);
#262=VECTOR('',#441,1000.);
#263=VECTOR('',#446,1000.);
#264=VECTOR('',#447,1000.);
#265=VECTOR('',#450,1000.);
#266=VECTOR('',#453,1000.);
#267=VECTOR('',#458,1000.);
#268=VECTOR('',#459,1000.);
#269=VECTOR('',#460,1000.);
#270=VECTOR('',#461,1000.);
#271=VECTOR('',#464,1000.);
#272=VECTOR('',#465,1000.);
#273=VECTOR('',#468,1000.);
#274=VECTOR('',#469,1000.);
#275=VECTOR('',#470,1000.);
#276=VECTOR('',#473,1000.);
#277=VECTOR('',#474,1000.);
#278=EDGE_LOOP('',(#20,#21,#22,#23,#24,#25,#26,#27));
#279=EDGE_LOOP('',(#28,#29,#30,#31,#32,#33,#34,#35));
#280=EDGE_LOOP('',(#36,#37,#38,#39));
#281=EDGE_LOOP('',(#40,#41,#42,#43));
#282=EDGE_LOOP('',(#44,#45,#46,#47));
#283=EDGE_LOOP('',(#48,#49,#50,#51));
#284=EDGE_LOOP('',(#52,#53,#54,#55));
#285=EDGE_LOOP('',(#56,#57,#58,#59));
#286=EDGE_LOOP('',(#60,#61,#62,#63));
#287=EDGE_LOOP('',(#64,#65,#66,#67));
#288=EDGE_LOOP('',(#68,#69,#70,#71));
#289=EDGE_LOOP('',(#72,#73,#74,#75));
#290=EDGE_LOOP('',(#76,#77,#78,#79));
#291=EDGE_LOOP('',(#80,#81,#82,#83));
#292=EDGE_LOOP('',(#84,#85,#86,#87,#88,#89));
#293=EDGE_LOOP('',(#90,#91,#92,#93));
#294=EDGE_LOOP('',(#94,#95,#96,#97,#98,#99));
#295=EDGE_LOOP('',(#100,#101,#102,#103));
#296=EDGE_LOOP('',(#104,#105,#106,#107));
#297=EDGE_LOOP('',(#108,#109,#110,#111));
#298=FACE_BOUND('',#278,.T.);
#299=FACE_BOUND('',#279,.T.);
#300=FACE_BOUND('',#280,.T.);
#301=FACE_BOUND('',#281,.T.);
#302=FACE_BOUND('',#282,.T.);
#303=FACE_BOUND('',#283,.T.);
#304=FACE_BOUND('',#284,.T.);
#305=FACE_BOUND('',#285,.T.);
#306=FACE_BOUND('',#286,.T.);
#307=FACE_BOUND('',#287,.T.);
#308=FACE_BOUND('',#288,.T.);
#309=FACE_BOUND('',#289,.T.);
#310=FACE_BOUND('',#290,.T.);
#311=FACE_BOUND('',#291,.T.);
#312=FACE_BOUND('',#292,.T.);
#313=FACE_BOUND('',#293,.T.);
#314=FACE_BOUND('',#294,.T.);
#315=FACE_BOUND('',#295,.T.);
#316=FACE_BOUND('',#296,.T.);
#317=FACE_BOUND('',#297,.T.);
#318=PLANE('',#371);
#319=PLANE('',#372);
#320=PLANE('',#373);
#321=PLANE('',#374);
#322=PLANE('',#375);
#323=PLANE('',#376);
#324=PLANE('',#377);
#325=PLANE('',#378);
#326=PLANE('',#379);
#327=PLANE('',#380);
#328=PLANE('',#381);
#329=PLANE('',#382);
#330=PLANE('',#383);
#331=PLANE('',#384);
#332=PLANE('',#385);
#333=PLANE('',#386);
#334=PLANE('',#387);
#335=PLANE('',#388);
#336=PLANE('',#389);
#337=PLANE('',#390);
#338=ADVANCED_FACE('',(#298),#318,.T.);
#339=ADVANCED_FACE('',(#299),#319,.T.);
#340=ADVANCED_FACE('',(#300),#320,.T.);
#341=ADVANCED_FACE('',(#301),#321,.T.);
#342=ADVANCED_FACE('',(#302),#322,.F.);
#343=ADVANCED_FACE('',(#303),#323,.T.);
#344=ADVANCED_FACE('',(#304),#324,.T.);
#345=ADVANCED_FACE('',(#305),#325,.T.);
#346=ADVANCED_FACE('',(#306),#326,.T.);
#347=ADVANCED_FACE('',(#307),#327,.T.);
#348=ADVANCED_FACE('',(#308),#328,.F.);
#349=ADVANCED_FACE('',(#309),#329,.F.);
#350=ADVANCED_FACE('',(#310),#330,.F.);
#351=ADVANCED_FACE('',(#311),#331,.F.);
#352=ADVANCED_FACE('',(#312),#332,.T.);
#353=ADVANCED_FACE('',(#313),#333,.T.);
#354=ADVANCED_FACE('',(#314),#334,.T.);
#355=ADVANCED_FACE('',(#315),#335,.T.);
#356=ADVANCED_FACE('',(#316),#336,.F.);
#357=ADVANCED_FACE('',(#317),#337,.T.);
#358=CLOSED_SHELL('',(#338,#339,#340,#341,#342,#343,#344,#345,#346,#347,
#348,#349,#350,#351,#352,#353,#354,#355,#356,#357));
#359=STYLED_ITEM('',(#360),#367);
#360=PRESENTATION_STYLE_ASSIGNMENT((#361));
#361=SURFACE_STYLE_USAGE(.BOTH.,#362);
#362=SURFACE_SIDE_STYLE('',(#363));
#363=SURFACE_STYLE_FILL_AREA(#364);
#364=FILL_AREA_STYLE('',(#365));
#365=FILL_AREA_STYLE_COLOUR('',#366);
#366=COLOUR_RGB('',0.645180702209473,0.678915679454803,0.699999988079071);
#367=MANIFOLD_SOLID_BREP('',#358);
#368=SHAPE_DEFINITION_REPRESENTATION(#580,#369);
#369=SHAPE_REPRESENTATION('Part6',(#370),#575);
#370=AXIS2_PLACEMENT_3D('',#479,#391,#392);
#371=AXIS2_PLACEMENT_3D('',#480,#393,#394);
#372=AXIS2_PLACEMENT_3D('',#497,#403,#404);
#373=AXIS2_PLACEMENT_3D('',#508,#411,#412);
#374=AXIS2_PLACEMENT_3D('',#514,#416,#417);
#375=AXIS2_PLACEMENT_3D('',#517,#420,#421);
#376=AXIS2_PLACEMENT_3D('',#526,#426,#427);
#377=AXIS2_PLACEMENT_3D('',#535,#432,#433);
#378=AXIS2_PLACEMENT_3D('',#538,#436,#437);
#379=AXIS2_PLACEMENT_3D('',#540,#439,#440);
#380=AXIS2_PLACEMENT_3D('',#542,#442,#443);
#381=AXIS2_PLACEMENT_3D('',#543,#444,#445);
#382=AXIS2_PLACEMENT_3D('',#546,#448,#449);
#383=AXIS2_PLACEMENT_3D('',#548,#451,#452);
#384=AXIS2_PLACEMENT_3D('',#550,#454,#455);
#385=AXIS2_PLACEMENT_3D('',#551,#456,#457);
#386=AXIS2_PLACEMENT_3D('',#559,#462,#463);
#387=AXIS2_PLACEMENT_3D('',#563,#466,#467);
#388=AXIS2_PLACEMENT_3D('',#569,#471,#472);
#389=AXIS2_PLACEMENT_3D('',#572,#475,#476);
#390=AXIS2_PLACEMENT_3D('',#573,#477,#478);
#391=DIRECTION('',(0.,0.,1.));
#392=DIRECTION('',(1.,0.,0.));
#393=DIRECTION('',(1.,0.,0.));
#394=DIRECTION('',(0.,0.,-1.));
#395=DIRECTION('',(0.,1.,0.));
#396=DIRECTION('',(0.,0.,1.));
#397=DIRECTION('',(0.,-1.,0.));
#398=DIRECTION('',(0.,0.,-1.));
#399=DIRECTION('',(0.,-1.,0.));
#400=DIRECTION('',(0.,0.,1.));
#401=DIRECTION('',(0.,-1.,0.));
#402=DIRECTION('',(0.,0.,1.));
#403=DIRECTION('',(0.,0.,1.));
#404=DIRECTION('',(1.,0.,0.));
#405=DIRECTION('',(-1.,-1.33440267382831E-16,0.));
#406=DIRECTION('',(4.62592926927146E-16,1.,0.));
#407=DIRECTION('',(1.,-1.33440267382831E-16,0.));
#408=DIRECTION('',(-1.,0.,0.));
#409=DIRECTION('',(0.,-1.,0.));
#410=DIRECTION('',(1.,0.,0.));
#411=DIRECTION('',(-1.,0.,0.));
#412=DIRECTION('',(0.,0.,1.));
#413=DIRECTION('',(0.,0.,-1.));
#414=DIRECTION('',(0.,-1.,0.));
#415=DIRECTION('',(0.,0.,1.));
#416=DIRECTION('',(0.,0.,-1.));
#417=DIRECTION('',(-1.,0.,0.));
#418=DIRECTION('',(1.,0.,0.));
#419=DIRECTION('',(-1.,0.,0.));
#420=DIRECTION('',(0.,-1.,0.));
#421=DIRECTION('',(0.,0.,-1.));
#422=DIRECTION('',(1.,0.,0.));
#423=DIRECTION('',(0.,0.,-1.));
#424=DIRECTION('',(-1.,0.,0.));
#425=DIRECTION('',(0.,0.,1.));
#426=DIRECTION('',(0.,-1.,0.));
#427=DIRECTION('',(0.,0.,-1.));
#428=DIRECTION('',(1.,0.,0.));
#429=DIRECTION('',(0.,0.,1.));
#430=DIRECTION('',(-1.,0.,0.));
#431=DIRECTION('',(0.,0.,-1.));
#432=DIRECTION('',(-0.707106781186547,0.707106781186547,0.));
#433=DIRECTION('',(0.,0.,1.));
#434=DIRECTION('',(-0.577350269189626,-0.577350269189626,0.577350269189625));
#435=DIRECTION('',(-0.577350269189626,-0.577350269189626,-0.577350269189625));
#436=DIRECTION('',(0.,0.707106781186547,-0.707106781186548));
#437=DIRECTION('',(-1.,0.,0.));
#438=DIRECTION('',(0.577350269189626,-0.577350269189626,-0.577350269189625));
#439=DIRECTION('',(0.,0.707106781186547,0.707106781186548));
#440=DIRECTION('',(1.,0.,0.));
#441=DIRECTION('',(-0.577350269189626,0.577350269189626,-0.577350269189625));
#442=DIRECTION('',(0.707106781186547,0.707106781186547,0.));
#443=DIRECTION('',(0.,0.,-1.));
#444=DIRECTION('',(0.707106781186547,0.707106781186547,0.));
#445=DIRECTION('',(0.,0.,-1.));
#446=DIRECTION('',(0.577350269189626,-0.577350269189626,-0.577350269189625));
#447=DIRECTION('',(0.577350269189626,-0.577350269189626,0.577350269189625));
#448=DIRECTION('',(0.,0.707106781186547,0.707106781186548));
#449=DIRECTION('',(1.,0.,0.));
#450=DIRECTION('',(-0.577350269189626,-0.577350269189626,0.577350269189625));
#451=DIRECTION('',(0.,0.707106781186547,-0.707106781186548));
#452=DIRECTION('',(-1.,0.,0.));
#453=DIRECTION('',(0.577350269189626,0.577350269189626,0.577350269189625));
#454=DIRECTION('',(-0.707106781186547,0.707106781186547,0.));
#455=DIRECTION('',(0.,0.,1.));
#456=DIRECTION('',(1.33440267382831E-16,-1.,0.));
#457=DIRECTION('',(1.,1.33440267382831E-16,0.));
#458=DIRECTION('',(-1.,1.38777878078145E-16,0.));
#459=DIRECTION('',(0.,0.,-1.));
#460=DIRECTION('',(-1.,-1.33440267382831E-16,0.));
#461=DIRECTION('',(0.,0.,-1.));
#462=DIRECTION('',(-1.,4.62592926927146E-16,0.));
#463=DIRECTION('',(-4.62592926927146E-16,-1.,0.));
#464=DIRECTION('',(4.62592926927146E-16,1.,0.));
#465=DIRECTION('',(0.,0.,-1.));
#466=DIRECTION('',(1.33440267382831E-16,1.,0.));
#467=DIRECTION('',(-1.,1.33440267382831E-16,0.));
#468=DIRECTION('',(1.,-1.33440267382831E-16,0.));
#469=DIRECTION('',(0.,0.,-1.));
#470=DIRECTION('',(1.,0.,0.));
#471=DIRECTION('',(1.,-9.25185853854293E-16,0.));
#472=DIRECTION('',(9.25185853854293E-16,1.,0.));
#473=DIRECTION('',(0.,-1.,0.));
#474=DIRECTION('',(-9.25185853854293E-16,-1.,0.));
#475=DIRECTION('',(0.,0.,-1.));
#476=DIRECTION('',(-1.,0.,0.));
#477=DIRECTION('',(0.,0.,-1.));
#478=DIRECTION('',(-1.,0.,0.));
#479=CARTESIAN_POINT('',(0.,0.,0.));
#480=CARTESIAN_POINT('',(126.5,80.,-61.));
#481=CARTESIAN_POINT('',(126.5,24.9999999999999,-38.2208903273469));
#482=CARTESIAN_POINT('',(126.5,24.9999999999999,-38.2208903273469));
#483=CARTESIAN_POINT('',(126.5,55.,-38.2208903273469));
#484=CARTESIAN_POINT('',(126.5,24.9999999999999,-38.2208903273469));
#485=CARTESIAN_POINT('',(126.5,24.9999999999999,61.));
#486=CARTESIAN_POINT('',(126.5,80.,61.));
#487=CARTESIAN_POINT('',(126.5,5.,61.));
#488=CARTESIAN_POINT('',(126.5,5.,-61.));
#489=CARTESIAN_POINT('',(126.5,5.,-61.));
#490=CARTESIAN_POINT('',(126.5,80.,-61.));
#491=CARTESIAN_POINT('',(126.5,75.,-61.));
#492=CARTESIAN_POINT('',(126.5,75.,61.));
#493=CARTESIAN_POINT('',(126.5,75.,61.));
#494=CARTESIAN_POINT('',(126.5,80.,61.));
#495=CARTESIAN_POINT('',(126.5,55.0000000000001,61.));
#496=CARTESIAN_POINT('',(126.5,55.,-38.2208903273469));
#497=CARTESIAN_POINT('',(126.5,80.,61.));
#498=CARTESIAN_POINT('',(151.5,24.9999999999999,61.));
#499=CARTESIAN_POINT('',(-108.5,24.9999999999999,61.));
#500=CARTESIAN_POINT('',(-108.5,24.9999999999999,61.));
#501=CARTESIAN_POINT('',(-108.5,55.0000000000001,61.));
#502=CARTESIAN_POINT('',(-108.5,55.0000000000001,61.));
#503=CARTESIAN_POINT('',(-126.5,75.,61.));
#504=CARTESIAN_POINT('',(-126.5,75.,61.));
#505=CARTESIAN_POINT('',(-126.5,80.,61.));
#506=CARTESIAN_POINT('',(-126.5,5.,61.));
#507=CARTESIAN_POINT('',(126.5,5.,61.));
#508=CARTESIAN_POINT('',(-126.5,80.,61.));
#509=CARTESIAN_POINT('',(-126.5,75.,-61.));
#510=CARTESIAN_POINT('',(-126.5,75.,-61.));
#511=CARTESIAN_POINT('',(-126.5,80.,-61.));
#512=CARTESIAN_POINT('',(-126.5,5.,-61.));
#513=CARTESIAN_POINT('',(-126.5,5.,61.));
#514=CARTESIAN_POINT('',(-126.5,80.,-61.));
#515=CARTESIAN_POINT('',(126.5,75.,-61.));
#516=CARTESIAN_POINT('',(-126.5,5.,-61.));
#517=CARTESIAN_POINT('',(0.,80.,0.));
#518=CARTESIAN_POINT('',(126.5,80.,56.));
#519=CARTESIAN_POINT('',(-121.5,80.,56.));
#520=CARTESIAN_POINT('',(121.5,80.,56.));
#521=CARTESIAN_POINT('',(121.5,80.,-61.));
#522=CARTESIAN_POINT('',(121.5,80.,-56.));
#523=CARTESIAN_POINT('',(-126.5,80.,-56.));
#524=CARTESIAN_POINT('',(-121.5,80.,-56.));
#525=CARTESIAN_POINT('',(-121.5,80.,61.));
#526=CARTESIAN_POINT('',(0.,0.,0.));
#527=CARTESIAN_POINT('',(0.,0.,-56.));
#528=CARTESIAN_POINT('',(-121.5,0.,-56.));
#529=CARTESIAN_POINT('',(121.5,0.,-56.));
#530=CARTESIAN_POINT('',(121.5,0.,0.));
#531=CARTESIAN_POINT('',(121.5,0.,56.));
#532=CARTESIAN_POINT('',(0.,0.,56.));
#533=CARTESIAN_POINT('',(-121.5,0.,56.));
#534=CARTESIAN_POINT('',(-121.5,0.,0.));
#535=CARTESIAN_POINT('',(-126.5,75.,61.));
#536=CARTESIAN_POINT('',(-42.1666666666666,159.333333333333,-23.3333333333333));
#537=CARTESIAN_POINT('',(-85.8333333333333,115.666666666667,-20.3333333333334));
#538=CARTESIAN_POINT('',(-126.5,75.,-61.));
#539=CARTESIAN_POINT('',(42.1666666666666,159.333333333333,23.3333333333333));
#540=CARTESIAN_POINT('',(126.5,75.,61.));
#541=CARTESIAN_POINT('',(126.5,75.,61.));
#542=CARTESIAN_POINT('',(126.5,75.,-61.));
#543=CARTESIAN_POINT('',(-121.5,0.,0.));
#544=CARTESIAN_POINT('',(-81.,-40.5,15.5));
#545=CARTESIAN_POINT('',(-102.833333333333,-18.6666666666667,-37.3333333333334));
#546=CARTESIAN_POINT('',(0.,0.,-56.));
#547=CARTESIAN_POINT('',(81.,-40.5,-15.5));
#548=CARTESIAN_POINT('',(0.,0.,56.));
#549=CARTESIAN_POINT('',(81.,-40.5,15.5));
#550=CARTESIAN_POINT('',(121.5,0.,0.));
#551=CARTESIAN_POINT('',(151.5,24.9999999999999,86.));
#552=CARTESIAN_POINT('',(151.5,24.9999999999999,-38.2208903273469));
#553=CARTESIAN_POINT('',(151.5,24.9999999999999,-38.2208903273469));
#554=CARTESIAN_POINT('',(151.5,24.9999999999999,86.));
#555=CARTESIAN_POINT('',(151.5,24.9999999999999,86.));
#556=CARTESIAN_POINT('',(151.5,24.9999999999999,86.));
#557=CARTESIAN_POINT('',(-108.5,24.9999999999999,86.));
#558=CARTESIAN_POINT('',(-108.5,24.9999999999999,86.));
#559=CARTESIAN_POINT('',(-108.5,24.9999999999999,86.));
#560=CARTESIAN_POINT('',(-108.5,24.9999999999999,86.));
#561=CARTESIAN_POINT('',(-108.5,55.0000000000001,86.));
#562=CARTESIAN_POINT('',(-108.5,55.0000000000001,86.));
#563=CARTESIAN_POINT('',(-108.5,55.0000000000001,86.));
#564=CARTESIAN_POINT('',(-108.5,55.0000000000001,86.));
#565=CARTESIAN_POINT('',(151.5,55.0000000000001,86.));
#566=CARTESIAN_POINT('',(151.5,55.0000000000001,86.));
#567=CARTESIAN_POINT('',(151.5,55.,-38.2208903273469));
#568=CARTESIAN_POINT('',(126.5,55.,-38.2208903273469));
#569=CARTESIAN_POINT('',(151.5,55.0000000000001,86.));
#570=CARTESIAN_POINT('',(151.5,55.,-38.2208903273469));
#571=CARTESIAN_POINT('',(151.5,55.0000000000001,86.));
#572=CARTESIAN_POINT('',(0.,0.,86.));
#573=CARTESIAN_POINT('',(0.,0.,-38.2208903273469));
#574=MECHANICAL_DESIGN_GEOMETRIC_PRESENTATION_REPRESENTATION('',(#359),
#575);
#575=(
GEOMETRIC_REPRESENTATION_CONTEXT(3)
GLOBAL_UNCERTAINTY_ASSIGNED_CONTEXT((#576))
GLOBAL_UNIT_ASSIGNED_CONTEXT((#579,#578,#577))
REPRESENTATION_CONTEXT('Part6','TOP_LEVEL_ASSEMBLY_PART')
);
#576=UNCERTAINTY_MEASURE_WITH_UNIT(LENGTH_MEASURE(0.005),#579,
'DISTANCE_ACCURACY_VALUE','Maximum Tolerance applied to model');
#577=(
NAMED_UNIT(*)
SI_UNIT($,.STERADIAN.)
SOLID_ANGLE_UNIT()
);
#578=(
NAMED_UNIT(*)
PLANE_ANGLE_UNIT()
SI_UNIT($,.RADIAN.)
);
#579=(
LENGTH_UNIT()
NAMED_UNIT(*)
SI_UNIT(.MILLI.,.METRE.)
);
#580=PRODUCT_DEFINITION_SHAPE('','',#581);
#581=PRODUCT_DEFINITION('','',#583,#582);
#582=PRODUCT_DEFINITION_CONTEXT('',#589,'design');
#583=PRODUCT_DEFINITION_FORMATION_WITH_SPECIFIED_SOURCE('','',#585,
 .NOT_KNOWN.);
#584=PRODUCT_RELATED_PRODUCT_CATEGORY('','',(#585));
#585=PRODUCT('Part6','Part6','Part6',(#587));
#586=PRODUCT_CATEGORY('','');
#587=PRODUCT_CONTEXT('',#589,'mechanical');
#588=APPLICATION_PROTOCOL_DEFINITION('international standard',
'automotive_design',2010,#589);
#589=APPLICATION_CONTEXT(
'core data for automotive mechanical design processes');
ENDSEC;
END-ISO-10303-21;
