ISO-10303-21;
HEADER;
/* Generated by software containing ST-Developer
 * from STEP Tools, Inc. (www.steptools.com) 
 */
/* OPTION: strings as raw bytes, not using required /X/ escapes */

FILE_DESCRIPTION(
/* description */ ('Unknown'),
/* implementation_level */ '2;1');

FILE_NAME(
/* name */ 'SNP 7288 D LED 230V',
/* time_stamp */ '2018-04-10T13:41:43+02:00',
/* author */ ('Unknown'),
/* organization */ ('Unknown'),
/* preprocessor_version */ 'ST-DEVELOPER v16.7',
/* originating_system */ 'DEX',
/* authorisation */ $);

FILE_SCHEMA (('AUTOMOTIVE_DESIGN {1 0 10303 214 3 1 1}'));
ENDSEC;

DATA;
#10=PROPERTY_DEFINITION_REPRESENTATION(#14,#12);
#11=PROPERTY_DEFINITION_REPRESENTATION(#15,#13);
#12=REPRESENTATION('',(#16),#519);
#13=REPRESENTATION('',(#17),#519);
#14=PROPERTY_DEFINITION('pmi validation property','',#524);
#15=PROPERTY_DEFINITION('pmi validation property','',#524);
#16=VALUE_REPRESENTATION_ITEM('number of annotations',COUNT_MEASURE(0.));
#17=VALUE_REPRESENTATION_ITEM('number of views',COUNT_MEASURE(0.));
#18=SHAPE_REPRESENTATION_RELATIONSHIP('','',#333,#19);
#19=ADVANCED_BREP_SHAPE_REPRESENTATION('',(#331),#519);
#20=ORIENTED_EDGE('',*,*,#100,.F.);
#21=ORIENTED_EDGE('',*,*,#101,.T.);
#22=ORIENTED_EDGE('',*,*,#102,.T.);
#23=ORIENTED_EDGE('',*,*,#103,.T.);
#24=ORIENTED_EDGE('',*,*,#104,.F.);
#25=ORIENTED_EDGE('',*,*,#105,.T.);
#26=ORIENTED_EDGE('',*,*,#106,.F.);
#27=ORIENTED_EDGE('',*,*,#107,.T.);
#28=ORIENTED_EDGE('',*,*,#108,.T.);
#29=ORIENTED_EDGE('',*,*,#109,.T.);
#30=ORIENTED_EDGE('',*,*,#110,.T.);
#31=ORIENTED_EDGE('',*,*,#111,.T.);
#32=ORIENTED_EDGE('',*,*,#112,.T.);
#33=ORIENTED_EDGE('',*,*,#113,.T.);
#34=ORIENTED_EDGE('',*,*,#114,.T.);
#35=ORIENTED_EDGE('',*,*,#115,.T.);
#36=ORIENTED_EDGE('',*,*,#102,.F.);
#37=ORIENTED_EDGE('',*,*,#116,.T.);
#38=ORIENTED_EDGE('',*,*,#104,.T.);
#39=ORIENTED_EDGE('',*,*,#117,.T.);
#40=ORIENTED_EDGE('',*,*,#118,.T.);
#41=ORIENTED_EDGE('',*,*,#119,.F.);
#42=ORIENTED_EDGE('',*,*,#120,.F.);
#43=ORIENTED_EDGE('',*,*,#121,.T.);
#44=ORIENTED_EDGE('',*,*,#122,.T.);
#45=ORIENTED_EDGE('',*,*,#123,.F.);
#46=ORIENTED_EDGE('',*,*,#124,.F.);
#47=ORIENTED_EDGE('',*,*,#119,.T.);
#48=ORIENTED_EDGE('',*,*,#125,.T.);
#49=ORIENTED_EDGE('',*,*,#126,.F.);
#50=ORIENTED_EDGE('',*,*,#127,.F.);
#51=ORIENTED_EDGE('',*,*,#123,.T.);
#52=ORIENTED_EDGE('',*,*,#128,.T.);
#53=ORIENTED_EDGE('',*,*,#121,.F.);
#54=ORIENTED_EDGE('',*,*,#129,.F.);
#55=ORIENTED_EDGE('',*,*,#126,.T.);
#56=ORIENTED_EDGE('',*,*,#106,.T.);
#57=ORIENTED_EDGE('',*,*,#130,.T.);
#58=ORIENTED_EDGE('',*,*,#100,.T.);
#59=ORIENTED_EDGE('',*,*,#131,.T.);
#60=ORIENTED_EDGE('',*,*,#120,.T.);
#61=ORIENTED_EDGE('',*,*,#124,.T.);
#62=ORIENTED_EDGE('',*,*,#127,.T.);
#63=ORIENTED_EDGE('',*,*,#129,.T.);
#64=ORIENTED_EDGE('',*,*,#122,.F.);
#65=ORIENTED_EDGE('',*,*,#118,.F.);
#66=ORIENTED_EDGE('',*,*,#128,.F.);
#67=ORIENTED_EDGE('',*,*,#125,.F.);
#68=ORIENTED_EDGE('',*,*,#132,.F.);
#69=ORIENTED_EDGE('',*,*,#105,.F.);
#70=ORIENTED_EDGE('',*,*,#133,.F.);
#71=ORIENTED_EDGE('',*,*,#111,.F.);
#72=ORIENTED_EDGE('',*,*,#133,.T.);
#73=ORIENTED_EDGE('',*,*,#116,.F.);
#74=ORIENTED_EDGE('',*,*,#134,.F.);
#75=ORIENTED_EDGE('',*,*,#108,.F.);
#76=ORIENTED_EDGE('',*,*,#132,.T.);
#77=ORIENTED_EDGE('',*,*,#110,.F.);
#78=ORIENTED_EDGE('',*,*,#135,.F.);
#79=ORIENTED_EDGE('',*,*,#130,.F.);
#80=ORIENTED_EDGE('',*,*,#134,.T.);
#81=ORIENTED_EDGE('',*,*,#101,.F.);
#82=ORIENTED_EDGE('',*,*,#135,.T.);
#83=ORIENTED_EDGE('',*,*,#109,.F.);
#84=ORIENTED_EDGE('',*,*,#136,.F.);
#85=ORIENTED_EDGE('',*,*,#115,.F.);
#86=ORIENTED_EDGE('',*,*,#137,.F.);
#87=ORIENTED_EDGE('',*,*,#131,.F.);
#88=ORIENTED_EDGE('',*,*,#137,.T.);
#89=ORIENTED_EDGE('',*,*,#114,.F.);
#90=ORIENTED_EDGE('',*,*,#138,.F.);
#91=ORIENTED_EDGE('',*,*,#107,.F.);
#92=ORIENTED_EDGE('',*,*,#136,.T.);
#93=ORIENTED_EDGE('',*,*,#103,.F.);
#94=ORIENTED_EDGE('',*,*,#139,.F.);
#95=ORIENTED_EDGE('',*,*,#112,.F.);
#96=ORIENTED_EDGE('',*,*,#138,.T.);
#97=ORIENTED_EDGE('',*,*,#113,.F.);
#98=ORIENTED_EDGE('',*,*,#139,.T.);
#99=ORIENTED_EDGE('',*,*,#117,.F.);
#100=EDGE_CURVE('',#140,#141,#164,.T.);
#101=EDGE_CURVE('',#140,#142,#165,.T.);
#102=EDGE_CURVE('',#142,#143,#166,.T.);
#103=EDGE_CURVE('',#143,#141,#167,.T.);
#104=EDGE_CURVE('',#144,#145,#168,.T.);
#105=EDGE_CURVE('',#144,#146,#169,.T.);
#106=EDGE_CURVE('',#147,#146,#170,.T.);
#107=EDGE_CURVE('',#147,#145,#171,.T.);
#108=EDGE_CURVE('',#148,#149,#172,.T.);
#109=EDGE_CURVE('',#149,#150,#173,.T.);
#110=EDGE_CURVE('',#150,#151,#174,.T.);
#111=EDGE_CURVE('',#151,#148,#175,.T.);
#112=EDGE_CURVE('',#152,#153,#176,.T.);
#113=EDGE_CURVE('',#153,#154,#177,.T.);
#114=EDGE_CURVE('',#154,#155,#178,.T.);
#115=EDGE_CURVE('',#155,#152,#179,.T.);
#116=EDGE_CURVE('',#142,#144,#180,.T.);
#117=EDGE_CURVE('',#145,#143,#181,.T.);
#118=EDGE_CURVE('',#156,#157,#182,.T.);
#119=EDGE_CURVE('',#158,#157,#183,.T.);
#120=EDGE_CURVE('',#159,#158,#184,.T.);
#121=EDGE_CURVE('',#159,#156,#185,.T.);
#122=EDGE_CURVE('',#157,#160,#186,.T.);
#123=EDGE_CURVE('',#161,#160,#187,.T.);
#124=EDGE_CURVE('',#158,#161,#188,.T.);
#125=EDGE_CURVE('',#160,#162,#189,.T.);
#126=EDGE_CURVE('',#163,#162,#190,.T.);
#127=EDGE_CURVE('',#161,#163,#191,.T.);
#128=EDGE_CURVE('',#162,#156,#192,.T.);
#129=EDGE_CURVE('',#163,#159,#193,.T.);
#130=EDGE_CURVE('',#146,#140,#194,.T.);
#131=EDGE_CURVE('',#141,#147,#195,.T.);
#132=EDGE_CURVE('',#146,#151,#196,.F.);
#133=EDGE_CURVE('',#148,#144,#197,.F.);
#134=EDGE_CURVE('',#149,#142,#198,.F.);
#135=EDGE_CURVE('',#140,#150,#199,.T.);
#136=EDGE_CURVE('',#152,#141,#200,.F.);
#137=EDGE_CURVE('',#147,#155,#201,.T.);
#138=EDGE_CURVE('',#145,#154,#202,.F.);
#139=EDGE_CURVE('',#153,#143,#203,.F.);
#140=VERTEX_POINT('',#437);
#141=VERTEX_POINT('',#438);
#142=VERTEX_POINT('',#440);
#143=VERTEX_POINT('',#442);
#144=VERTEX_POINT('',#446);
#145=VERTEX_POINT('',#447);
#146=VERTEX_POINT('',#449);
#147=VERTEX_POINT('',#451);
#148=VERTEX_POINT('',#455);
#149=VERTEX_POINT('',#456);
#150=VERTEX_POINT('',#458);
#151=VERTEX_POINT('',#460);
#152=VERTEX_POINT('',#464);
#153=VERTEX_POINT('',#465);
#154=VERTEX_POINT('',#467);
#155=VERTEX_POINT('',#469);
#156=VERTEX_POINT('',#476);
#157=VERTEX_POINT('',#477);
#158=VERTEX_POINT('',#479);
#159=VERTEX_POINT('',#481);
#160=VERTEX_POINT('',#485);
#161=VERTEX_POINT('',#487);
#162=VERTEX_POINT('',#491);
#163=VERTEX_POINT('',#493);
#164=LINE('',#436,#204);
#165=LINE('',#439,#205);
#166=LINE('',#441,#206);
#167=LINE('',#443,#207);
#168=LINE('',#445,#208);
#169=LINE('',#448,#209);
#170=LINE('',#450,#210);
#171=LINE('',#452,#211);
#172=LINE('',#454,#212);
#173=LINE('',#457,#213);
#174=LINE('',#459,#214);
#175=LINE('',#461,#215);
#176=LINE('',#463,#216);
#177=LINE('',#466,#217);
#178=LINE('',#468,#218);
#179=LINE('',#470,#219);
#180=LINE('',#472,#220);
#181=LINE('',#473,#221);
#182=LINE('',#475,#222);
#183=LINE('',#478,#223);
#184=LINE('',#480,#224);
#185=LINE('',#482,#225);
#186=LINE('',#484,#226);
#187=LINE('',#486,#227);
#188=LINE('',#488,#228);
#189=LINE('',#490,#229);
#190=LINE('',#492,#230);
#191=LINE('',#494,#231);
#192=LINE('',#496,#232);
#193=LINE('',#497,#233);
#194=LINE('',#499,#234);
#195=LINE('',#500,#235);
#196=LINE('',#503,#236);
#197=LINE('',#504,#237);
#198=LINE('',#506,#238);
#199=LINE('',#508,#239);
#200=LINE('',#511,#240);
#201=LINE('',#512,#241);
#202=LINE('',#514,#242);
#203=LINE('',#516,#243);
#204=VECTOR('',#358,1000.);
#205=VECTOR('',#359,1000.);
#206=VECTOR('',#360,1000.);
#207=VECTOR('',#361,1000.);
#208=VECTOR('',#364,1000.);
#209=VECTOR('',#365,1000.);
#210=VECTOR('',#366,1000.);
#211=VECTOR('',#367,1000.);
#212=VECTOR('',#370,1000.);
#213=VECTOR('',#371,1000.);
#214=VECTOR('',#372,1000.);
#215=VECTOR('',#373,1000.);
#216=VECTOR('',#376,1000.);
#217=VECTOR('',#377,1000.);
#218=VECTOR('',#378,1000.);
#219=VECTOR('',#379,1000.);
#220=VECTOR('',#382,1000.);
#221=VECTOR('',#383,1000.);
#222=VECTOR('',#386,1000.);
#223=VECTOR('',#387,1000.);
#224=VECTOR('',#388,1000.);
#225=VECTOR('',#389,1000.);
#226=VECTOR('',#392,1000.);
#227=VECTOR('',#393,1000.);
#228=VECTOR('',#394,1000.);
#229=VECTOR('',#397,1000.);
#230=VECTOR('',#398,1000.);
#231=VECTOR('',#399,1000.);
#232=VECTOR('',#402,1000.);
#233=VECTOR('',#403,1000.);
#234=VECTOR('',#406,1000.);
#235=VECTOR('',#407,1000.);
#236=VECTOR('',#412,1000.);
#237=VECTOR('',#413,1000.);
#238=VECTOR('',#416,1000.);
#239=VECTOR('',#419,1000.);
#240=VECTOR('',#424,1000.);
#241=VECTOR('',#425,1000.);
#242=VECTOR('',#428,1000.);
#243=VECTOR('',#431,1000.);
#244=EDGE_LOOP('',(#20,#21,#22,#23));
#245=EDGE_LOOP('',(#24,#25,#26,#27));
#246=EDGE_LOOP('',(#28,#29,#30,#31));
#247=EDGE_LOOP('',(#32,#33,#34,#35));
#248=EDGE_LOOP('',(#36,#37,#38,#39));
#249=EDGE_LOOP('',(#40,#41,#42,#43));
#250=EDGE_LOOP('',(#44,#45,#46,#47));
#251=EDGE_LOOP('',(#48,#49,#50,#51));
#252=EDGE_LOOP('',(#52,#53,#54,#55));
#253=EDGE_LOOP('',(#56,#57,#58,#59));
#254=EDGE_LOOP('',(#60,#61,#62,#63));
#255=EDGE_LOOP('',(#64,#65,#66,#67));
#256=EDGE_LOOP('',(#68,#69,#70,#71));
#257=EDGE_LOOP('',(#72,#73,#74,#75));
#258=EDGE_LOOP('',(#76,#77,#78,#79));
#259=EDGE_LOOP('',(#80,#81,#82,#83));
#260=EDGE_LOOP('',(#84,#85,#86,#87));
#261=EDGE_LOOP('',(#88,#89,#90,#91));
#262=EDGE_LOOP('',(#92,#93,#94,#95));
#263=EDGE_LOOP('',(#96,#97,#98,#99));
#264=FACE_BOUND('',#244,.T.);
#265=FACE_BOUND('',#245,.T.);
#266=FACE_BOUND('',#246,.T.);
#267=FACE_BOUND('',#247,.T.);
#268=FACE_BOUND('',#248,.T.);
#269=FACE_BOUND('',#249,.T.);
#270=FACE_BOUND('',#250,.T.);
#271=FACE_BOUND('',#251,.T.);
#272=FACE_BOUND('',#252,.T.);
#273=FACE_BOUND('',#253,.T.);
#274=FACE_BOUND('',#254,.T.);
#275=FACE_BOUND('',#255,.T.);
#276=FACE_BOUND('',#256,.T.);
#277=FACE_BOUND('',#257,.T.);
#278=FACE_BOUND('',#258,.T.);
#279=FACE_BOUND('',#259,.T.);
#280=FACE_BOUND('',#260,.T.);
#281=FACE_BOUND('',#261,.T.);
#282=FACE_BOUND('',#262,.T.);
#283=FACE_BOUND('',#263,.T.);
#284=PLANE('',#335);
#285=PLANE('',#336);
#286=PLANE('',#337);
#287=PLANE('',#338);
#288=PLANE('',#339);
#289=PLANE('',#340);
#290=PLANE('',#341);
#291=PLANE('',#342);
#292=PLANE('',#343);
#293=PLANE('',#344);
#294=PLANE('',#345);
#295=PLANE('',#346);
#296=PLANE('',#347);
#297=PLANE('',#348);
#298=PLANE('',#349);
#299=PLANE('',#350);
#300=PLANE('',#351);
#301=PLANE('',#352);
#302=PLANE('',#353);
#303=ADVANCED_FACE('',(#264),#284,.F.);
#304=ADVANCED_FACE('',(#265),#285,.F.);
#305=ADVANCED_FACE('',(#266),#286,.T.);
#306=ADVANCED_FACE('',(#267),#287,.F.);
#307=ADVANCED_FACE('',(#268),#288,.F.);
#308=ADVANCED_FACE('',(#269),#289,.F.);
#309=ADVANCED_FACE('',(#270),#290,.F.);
#310=ADVANCED_FACE('',(#271),#291,.F.);
#311=ADVANCED_FACE('',(#272),#292,.F.);
#312=ADVANCED_FACE('',(#273,#274),#293,.T.);
#313=ADVANCED_FACE('',(#275),#294,.F.);
#314=ADVANCED_FACE('',(#276),#295,.T.);
#315=ADVANCED_FACE('',(#277),#296,.T.);
#316=ADVANCED_FACE('',(#278),#297,.F.);
#317=ADVANCED_FACE('',(#279),#298,.T.);
#318=ADVANCED_FACE('',(#280),#299,.T.);
#319=ADVANCED_FACE('',(#281),#300,.F.);
#320=ADVANCED_FACE('',(#282),#301,.F.);
#321=ADVANCED_FACE('',(#283),#302,.F.);
#322=CLOSED_SHELL('',(#303,#304,#305,#306,#307,#308,#309,#310,#311,#312,
#313,#314,#315,#316,#317,#318,#319,#320,#321));
#323=STYLED_ITEM('',(#324),#331);
#324=PRESENTATION_STYLE_ASSIGNMENT((#325));
#325=SURFACE_STYLE_USAGE(.BOTH.,#326);
#326=SURFACE_SIDE_STYLE('',(#327));
#327=SURFACE_STYLE_FILL_AREA(#328);
#328=FILL_AREA_STYLE('',(#329));
#329=FILL_AREA_STYLE_COLOUR('',#330);
#330=COLOUR_RGB('',0.506983280181885,0.531564235687256,0.550000011920929);
#331=MANIFOLD_SOLID_BREP('',#322);
#332=SHAPE_DEFINITION_REPRESENTATION(#524,#333);
#333=SHAPE_REPRESENTATION('SNP 7288 D LED 230V',(#334),#519);
#334=AXIS2_PLACEMENT_3D('',#434,#354,#355);
#335=AXIS2_PLACEMENT_3D('',#435,#356,#357);
#336=AXIS2_PLACEMENT_3D('',#444,#362,#363);
#337=AXIS2_PLACEMENT_3D('',#453,#368,#369);
#338=AXIS2_PLACEMENT_3D('',#462,#374,#375);
#339=AXIS2_PLACEMENT_3D('',#471,#380,#381);
#340=AXIS2_PLACEMENT_3D('',#474,#384,#385);
#341=AXIS2_PLACEMENT_3D('',#483,#390,#391);
#342=AXIS2_PLACEMENT_3D('',#489,#395,#396);
#343=AXIS2_PLACEMENT_3D('',#495,#400,#401);
#344=AXIS2_PLACEMENT_3D('',#498,#404,#405);
#345=AXIS2_PLACEMENT_3D('',#501,#408,#409);
#346=AXIS2_PLACEMENT_3D('',#502,#410,#411);
#347=AXIS2_PLACEMENT_3D('',#505,#414,#415);
#348=AXIS2_PLACEMENT_3D('',#507,#417,#418);
#349=AXIS2_PLACEMENT_3D('',#509,#420,#421);
#350=AXIS2_PLACEMENT_3D('',#510,#422,#423);
#351=AXIS2_PLACEMENT_3D('',#513,#426,#427);
#352=AXIS2_PLACEMENT_3D('',#515,#429,#430);
#353=AXIS2_PLACEMENT_3D('',#517,#432,#433);
#354=DIRECTION('',(0.,0.,1.));
#355=DIRECTION('',(1.,0.,0.));
#356=DIRECTION('',(1.,0.,0.));
#357=DIRECTION('',(0.,0.,-1.));
#358=DIRECTION('',(0.,-1.,0.));
#359=DIRECTION('',(0.,0.,-1.));
#360=DIRECTION('',(0.,-1.,0.));
#361=DIRECTION('',(0.,0.,1.));
#362=DIRECTION('',(-1.,0.,0.));
#363=DIRECTION('',(0.,0.,1.));
#364=DIRECTION('',(0.,-1.,0.));
#365=DIRECTION('',(0.,0.,1.));
#366=DIRECTION('',(0.,1.,0.));
#367=DIRECTION('',(0.,0.,-1.));
#368=DIRECTION('',(0.,1.,0.));
#369=DIRECTION('',(0.,0.,1.));
#370=DIRECTION('',(-1.,0.,0.));
#371=DIRECTION('',(0.,0.,1.));
#372=DIRECTION('',(1.,0.,0.));
#373=DIRECTION('',(0.,0.,-1.));
#374=DIRECTION('',(0.,1.,0.));
#375=DIRECTION('',(0.,0.,1.));
#376=DIRECTION('',(0.,0.,-1.));
#377=DIRECTION('',(1.,0.,0.));
#378=DIRECTION('',(0.,0.,1.));
#379=DIRECTION('',(-1.,0.,0.));
#380=DIRECTION('',(0.,0.,1.));
#381=DIRECTION('',(1.,0.,0.));
#382=DIRECTION('',(1.,0.,0.));
#383=DIRECTION('',(-1.,0.,0.));
#384=DIRECTION('',(-1.33440267382831E-17,1.,0.));
#385=DIRECTION('',(-1.,-1.33440267382831E-17,0.));
#386=DIRECTION('',(-1.,-1.33440267382831E-17,0.));
#387=DIRECTION('',(0.,0.,1.));
#388=DIRECTION('',(-1.,-1.33440267382831E-17,0.));
#389=DIRECTION('',(0.,0.,1.));
#390=DIRECTION('',(1.,0.,0.));
#391=DIRECTION('',(0.,0.,-1.));
#392=DIRECTION('',(0.,1.,0.));
#393=DIRECTION('',(0.,0.,1.));
#394=DIRECTION('',(0.,1.,0.));
#395=DIRECTION('',(0.,-1.,0.));
#396=DIRECTION('',(0.,0.,-1.));
#397=DIRECTION('',(1.,0.,0.));
#398=DIRECTION('',(0.,0.,1.));
#399=DIRECTION('',(1.,0.,0.));
#400=DIRECTION('',(-1.,0.,0.));
#401=DIRECTION('',(0.,0.,1.));
#402=DIRECTION('',(0.,-1.,0.));
#403=DIRECTION('',(0.,-1.,0.));
#404=DIRECTION('',(0.,0.,1.));
#405=DIRECTION('',(1.,0.,0.));
#406=DIRECTION('',(-1.,0.,0.));
#407=DIRECTION('',(1.,0.,0.));
#408=DIRECTION('',(0.,0.,-1.));
#409=DIRECTION('',(-1.,0.,0.));
#410=DIRECTION('',(0.707106781186547,0.707106781186547,0.));
#411=DIRECTION('',(0.,0.,1.));
#412=DIRECTION('',(0.577350269189626,-0.577350269189626,0.577350269189626));
#413=DIRECTION('',(-0.577350269189626,0.577350269189626,0.577350269189626));
#414=DIRECTION('',(0.,0.707106781186547,-0.707106781186547));
#415=DIRECTION('',(1.,0.,0.));
#416=DIRECTION('',(0.577350269189626,0.577350269189626,0.577350269189626));
#417=DIRECTION('',(0.,-0.707106781186547,-0.707106781186547));
#418=DIRECTION('',(-1.,0.,0.));
#419=DIRECTION('',(0.577350269189626,0.577350269189626,-0.577350269189626));
#420=DIRECTION('',(-0.707106781186547,0.707106781186547,0.));
#421=DIRECTION('',(0.,0.,-1.));
#422=DIRECTION('',(0.,-0.707106781186548,0.707106781186547));
#423=DIRECTION('',(-1.,0.,0.));
#424=DIRECTION('',(0.577350269189626,-0.577350269189626,-0.577350269189626));
#425=DIRECTION('',(-0.577350269189626,-0.577350269189626,-0.577350269189626));
#426=DIRECTION('',(-0.707106781186547,0.707106781186547,0.));
#427=DIRECTION('',(0.,0.,-1.));
#428=DIRECTION('',(0.577350269189626,0.577350269189626,-0.577350269189626));
#429=DIRECTION('',(0.707106781186547,0.707106781186547,0.));
#430=DIRECTION('',(0.,0.,1.));
#431=DIRECTION('',(0.577350269189626,-0.577350269189626,0.577350269189626));
#432=DIRECTION('',(0.,0.707106781186547,0.707106781186547));
#433=DIRECTION('',(-1.,0.,0.));
#434=CARTESIAN_POINT('',(0.,0.,0.));
#435=CARTESIAN_POINT('',(-171.,80.,-108.5));
#436=CARTESIAN_POINT('',(-171.,80.,83.5));
#437=CARTESIAN_POINT('',(-171.,75.,83.5));
#438=CARTESIAN_POINT('',(-171.,5.,83.5));
#439=CARTESIAN_POINT('',(-171.,75.,-108.5));
#440=CARTESIAN_POINT('',(-171.,75.,-108.5));
#441=CARTESIAN_POINT('',(-171.,80.,-108.5));
#442=CARTESIAN_POINT('',(-171.,5.,-108.5));
#443=CARTESIAN_POINT('',(-171.,5.,-108.5));
#444=CARTESIAN_POINT('',(171.,80.,108.5));
#445=CARTESIAN_POINT('',(171.,80.,-108.5));
#446=CARTESIAN_POINT('',(171.,75.,-108.5));
#447=CARTESIAN_POINT('',(171.,5.,-108.5));
#448=CARTESIAN_POINT('',(171.,75.,83.5));
#449=CARTESIAN_POINT('',(171.,75.,83.5));
#450=CARTESIAN_POINT('',(171.,0.,83.5));
#451=CARTESIAN_POINT('',(171.,5.,83.5));
#452=CARTESIAN_POINT('',(171.,5.,108.5));
#453=CARTESIAN_POINT('',(0.,80.,0.));
#454=CARTESIAN_POINT('',(-171.,80.,-103.5));
#455=CARTESIAN_POINT('',(166.,80.,-103.5));
#456=CARTESIAN_POINT('',(-166.,80.,-103.5));
#457=CARTESIAN_POINT('',(-166.,80.,83.5));
#458=CARTESIAN_POINT('',(-166.,80.,78.5));
#459=CARTESIAN_POINT('',(0.,80.,78.5));
#460=CARTESIAN_POINT('',(166.,80.,78.5));
#461=CARTESIAN_POINT('',(166.,80.,-108.5));
#462=CARTESIAN_POINT('',(0.,0.,0.));
#463=CARTESIAN_POINT('',(-166.,0.,0.));
#464=CARTESIAN_POINT('',(-166.,0.,78.5));
#465=CARTESIAN_POINT('',(-166.,0.,-103.5));
#466=CARTESIAN_POINT('',(0.,0.,-103.5));
#467=CARTESIAN_POINT('',(166.,0.,-103.5));
#468=CARTESIAN_POINT('',(166.,0.,0.));
#469=CARTESIAN_POINT('',(166.,0.,78.5));
#470=CARTESIAN_POINT('',(-171.,0.,78.5));
#471=CARTESIAN_POINT('',(171.,80.,-108.5));
#472=CARTESIAN_POINT('',(171.,75.,-108.5));
#473=CARTESIAN_POINT('',(171.,5.,-108.5));
#474=CARTESIAN_POINT('',(130.,22.,83.5));
#475=CARTESIAN_POINT('',(130.,22.,108.5));
#476=CARTESIAN_POINT('',(130.,22.,108.5));
#477=CARTESIAN_POINT('',(-130.,22.,108.5));
#478=CARTESIAN_POINT('',(-130.,22.,83.5));
#479=CARTESIAN_POINT('',(-130.,22.,83.5));
#480=CARTESIAN_POINT('',(130.,22.,83.5));
#481=CARTESIAN_POINT('',(130.,22.,83.5));
#482=CARTESIAN_POINT('',(130.,22.,83.5));
#483=CARTESIAN_POINT('',(-130.,22.,83.5));
#484=CARTESIAN_POINT('',(-130.,22.,108.5));
#485=CARTESIAN_POINT('',(-130.,58.,108.5));
#486=CARTESIAN_POINT('',(-130.,58.,83.5));
#487=CARTESIAN_POINT('',(-130.,58.,83.5));
#488=CARTESIAN_POINT('',(-130.,22.,83.5));
#489=CARTESIAN_POINT('',(-130.,58.,83.5));
#490=CARTESIAN_POINT('',(-130.,58.,108.5));
#491=CARTESIAN_POINT('',(130.,58.,108.5));
#492=CARTESIAN_POINT('',(130.,58.,83.5));
#493=CARTESIAN_POINT('',(130.,58.,83.5));
#494=CARTESIAN_POINT('',(-130.,58.,83.5));
#495=CARTESIAN_POINT('',(130.,58.,83.5));
#496=CARTESIAN_POINT('',(130.,58.,108.5));
#497=CARTESIAN_POINT('',(130.,58.,83.5));
#498=CARTESIAN_POINT('',(0.,0.,83.5));
#499=CARTESIAN_POINT('',(0.,75.,83.5));
#500=CARTESIAN_POINT('',(171.,5.,83.5));
#501=CARTESIAN_POINT('',(-171.,80.,108.5));
#502=CARTESIAN_POINT('',(166.,80.,0.));
#503=CARTESIAN_POINT('',(114.,132.,26.5));
#504=CARTESIAN_POINT('',(131.5,114.5,-69.));
#505=CARTESIAN_POINT('',(0.,80.,-103.5));
#506=CARTESIAN_POINT('',(-110.666666666667,135.333333333333,-48.1666666666667));
#507=CARTESIAN_POINT('',(0.,75.,83.5));
#508=CARTESIAN_POINT('',(-114.,132.,26.5));
#509=CARTESIAN_POINT('',(-166.,80.,0.));
#510=CARTESIAN_POINT('',(0.,5.,83.5));
#511=CARTESIAN_POINT('',(-107.,-59.,19.4999999999999));
#512=CARTESIAN_POINT('',(114.,-52.,26.5));
#513=CARTESIAN_POINT('',(171.,5.,108.5));
#514=CARTESIAN_POINT('',(98.6666666666667,-67.3333333333333,-36.1666666666667));
#515=CARTESIAN_POINT('',(-171.,5.,-108.5));
#516=CARTESIAN_POINT('',(-171.,5.,-108.5));
#517=CARTESIAN_POINT('',(171.,5.,-108.5));
#518=MECHANICAL_DESIGN_GEOMETRIC_PRESENTATION_REPRESENTATION('',(#323),
#519);
#519=(
GEOMETRIC_REPRESENTATION_CONTEXT(3)
GLOBAL_UNCERTAINTY_ASSIGNED_CONTEXT((#520))
GLOBAL_UNIT_ASSIGNED_CONTEXT((#523,#522,#521))
REPRESENTATION_CONTEXT('SNP 7288 D LED 230V','TOP_LEVEL_ASSEMBLY_PART')
);
#520=UNCERTAINTY_MEASURE_WITH_UNIT(LENGTH_MEASURE(0.005),#523,
'DISTANCE_ACCURACY_VALUE','Maximum Tolerance applied to model');
#521=(
NAMED_UNIT(*)
SI_UNIT($,.STERADIAN.)
SOLID_ANGLE_UNIT()
);
#522=(
NAMED_UNIT(*)
PLANE_ANGLE_UNIT()
SI_UNIT($,.RADIAN.)
);
#523=(
LENGTH_UNIT()
NAMED_UNIT(*)
SI_UNIT(.MILLI.,.METRE.)
);
#524=PRODUCT_DEFINITION_SHAPE('','',#525);
#525=PRODUCT_DEFINITION('','',#527,#526);
#526=PRODUCT_DEFINITION_CONTEXT('',#533,'design');
#527=PRODUCT_DEFINITION_FORMATION_WITH_SPECIFIED_SOURCE('','',#529,
 .NOT_KNOWN.);
#528=PRODUCT_RELATED_PRODUCT_CATEGORY('','',(#529));
#529=PRODUCT('SNP 7288 D LED 230V','SNP 7288 D LED 230V',
'SNP 7288 D LED 230V',(#531));
#530=PRODUCT_CATEGORY('','');
#531=PRODUCT_CONTEXT('',#533,'mechanical');
#532=APPLICATION_PROTOCOL_DEFINITION('international standard',
'automotive_design',2010,#533);
#533=APPLICATION_CONTEXT(
'core data for automotive mechanical design processes');
ENDSEC;
END-ISO-10303-21;
