ISO-10303-21;
HEADER;
/* Generated by software containing ST-Developer
 * from STEP Tools, Inc. (www.steptools.com) 
 */
/* OPTION: strings as raw bytes, not using required /X/ escapes */

FILE_DESCRIPTION(
/* description */ ('Unknown'),
/* implementation_level */ '2;1');

FILE_NAME(
/* name */ 'SNP 8030 LED 230V',
/* time_stamp */ '2018-04-12T09:30:10+02:00',
/* author */ ('Unknown'),
/* organization */ ('Unknown'),
/* preprocessor_version */ 'ST-DEVELOPER v16.7',
/* originating_system */ 'DEX',
/* authorisation */ $);

FILE_SCHEMA (('AUTOMOTIVE_DESIGN {1 0 10303 214 3 1 1}'));
ENDSEC;

DATA;
#10=PROPERTY_DEFINITION_REPRESENTATION(#14,#12);
#11=PROPERTY_DEFINITION_REPRESENTATION(#15,#13);
#12=REPRESENTATION('',(#16),#285);
#13=REPRESENTATION('',(#17),#285);
#14=PROPERTY_DEFINITION('pmi validation property','',#290);
#15=PROPERTY_DEFINITION('pmi validation property','',#290);
#16=VALUE_REPRESENTATION_ITEM('number of annotations',COUNT_MEASURE(0.));
#17=VALUE_REPRESENTATION_ITEM('number of views',COUNT_MEASURE(0.));
#18=SHAPE_REPRESENTATION_RELATIONSHIP('','',#179,#19);
#19=ADVANCED_BREP_SHAPE_REPRESENTATION('',(#177),#285);
#20=ELLIPSE('',#188,2.82842712474619,2.);
#21=ELLIPSE('',#189,2.82842712474619,2.);
#22=ELLIPSE('',#191,2.82842712474619,2.);
#23=ELLIPSE('',#193,2.82842712474619,2.);
#24=CYLINDRICAL_SURFACE('',#187,2.);
#25=CYLINDRICAL_SURFACE('',#190,2.);
#26=CYLINDRICAL_SURFACE('',#192,2.);
#27=CYLINDRICAL_SURFACE('',#194,2.);
#28=ORIENTED_EDGE('',*,*,#68,.T.);
#29=ORIENTED_EDGE('',*,*,#69,.T.);
#30=ORIENTED_EDGE('',*,*,#70,.F.);
#31=ORIENTED_EDGE('',*,*,#71,.T.);
#32=ORIENTED_EDGE('',*,*,#72,.T.);
#33=ORIENTED_EDGE('',*,*,#73,.T.);
#34=ORIENTED_EDGE('',*,*,#68,.F.);
#35=ORIENTED_EDGE('',*,*,#74,.T.);
#36=ORIENTED_EDGE('',*,*,#75,.T.);
#37=ORIENTED_EDGE('',*,*,#76,.T.);
#38=ORIENTED_EDGE('',*,*,#72,.F.);
#39=ORIENTED_EDGE('',*,*,#77,.T.);
#40=ORIENTED_EDGE('',*,*,#70,.T.);
#41=ORIENTED_EDGE('',*,*,#78,.T.);
#42=ORIENTED_EDGE('',*,*,#75,.F.);
#43=ORIENTED_EDGE('',*,*,#79,.T.);
#44=ORIENTED_EDGE('',*,*,#71,.F.);
#45=ORIENTED_EDGE('',*,*,#79,.F.);
#46=ORIENTED_EDGE('',*,*,#77,.F.);
#47=ORIENTED_EDGE('',*,*,#74,.F.);
#48=ORIENTED_EDGE('',*,*,#80,.T.);
#49=ORIENTED_EDGE('',*,*,#81,.T.);
#50=ORIENTED_EDGE('',*,*,#82,.T.);
#51=ORIENTED_EDGE('',*,*,#83,.T.);
#52=ORIENTED_EDGE('',*,*,#84,.F.);
#53=ORIENTED_EDGE('',*,*,#69,.F.);
#54=ORIENTED_EDGE('',*,*,#85,.F.);
#55=ORIENTED_EDGE('',*,*,#83,.F.);
#56=ORIENTED_EDGE('',*,*,#85,.T.);
#57=ORIENTED_EDGE('',*,*,#73,.F.);
#58=ORIENTED_EDGE('',*,*,#86,.F.);
#59=ORIENTED_EDGE('',*,*,#80,.F.);
#60=ORIENTED_EDGE('',*,*,#84,.T.);
#61=ORIENTED_EDGE('',*,*,#82,.F.);
#62=ORIENTED_EDGE('',*,*,#87,.F.);
#63=ORIENTED_EDGE('',*,*,#78,.F.);
#64=ORIENTED_EDGE('',*,*,#86,.T.);
#65=ORIENTED_EDGE('',*,*,#76,.F.);
#66=ORIENTED_EDGE('',*,*,#87,.T.);
#67=ORIENTED_EDGE('',*,*,#81,.F.);
#68=EDGE_CURVE('',#88,#89,#100,.T.);
#69=EDGE_CURVE('',#89,#90,#101,.F.);
#70=EDGE_CURVE('',#91,#90,#102,.T.);
#71=EDGE_CURVE('',#91,#88,#103,.T.);
#72=EDGE_CURVE('',#92,#93,#104,.T.);
#73=EDGE_CURVE('',#93,#89,#105,.F.);
#74=EDGE_CURVE('',#88,#92,#106,.T.);
#75=EDGE_CURVE('',#94,#95,#107,.T.);
#76=EDGE_CURVE('',#95,#93,#108,.F.);
#77=EDGE_CURVE('',#92,#94,#109,.T.);
#78=EDGE_CURVE('',#90,#95,#110,.F.);
#79=EDGE_CURVE('',#94,#91,#111,.T.);
#80=EDGE_CURVE('',#96,#97,#112,.T.);
#81=EDGE_CURVE('',#97,#98,#113,.T.);
#82=EDGE_CURVE('',#98,#99,#114,.T.);
#83=EDGE_CURVE('',#99,#96,#115,.T.);
#84=EDGE_CURVE('',#90,#99,#20,.F.);
#85=EDGE_CURVE('',#96,#89,#21,.T.);
#86=EDGE_CURVE('',#97,#93,#22,.T.);
#87=EDGE_CURVE('',#95,#98,#23,.F.);
#88=VERTEX_POINT('',#244);
#89=VERTEX_POINT('',#245);
#90=VERTEX_POINT('',#247);
#91=VERTEX_POINT('',#249);
#92=VERTEX_POINT('',#253);
#93=VERTEX_POINT('',#254);
#94=VERTEX_POINT('',#259);
#95=VERTEX_POINT('',#260);
#96=VERTEX_POINT('',#269);
#97=VERTEX_POINT('',#270);
#98=VERTEX_POINT('',#272);
#99=VERTEX_POINT('',#274);
#100=LINE('',#243,#116);
#101=LINE('',#246,#117);
#102=LINE('',#248,#118);
#103=LINE('',#250,#119);
#104=LINE('',#252,#120);
#105=LINE('',#255,#121);
#106=LINE('',#256,#122);
#107=LINE('',#258,#123);
#108=LINE('',#261,#124);
#109=LINE('',#262,#125);
#110=LINE('',#264,#126);
#111=LINE('',#265,#127);
#112=LINE('',#268,#128);
#113=LINE('',#271,#129);
#114=LINE('',#273,#130);
#115=LINE('',#275,#131);
#116=VECTOR('',#199,1000.);
#117=VECTOR('',#200,1000.);
#118=VECTOR('',#201,1000.);
#119=VECTOR('',#202,1000.);
#120=VECTOR('',#205,1000.);
#121=VECTOR('',#206,1000.);
#122=VECTOR('',#207,1000.);
#123=VECTOR('',#210,1000.);
#124=VECTOR('',#211,1000.);
#125=VECTOR('',#212,1000.);
#126=VECTOR('',#215,1000.);
#127=VECTOR('',#216,1000.);
#128=VECTOR('',#221,1000.);
#129=VECTOR('',#222,1000.);
#130=VECTOR('',#223,1000.);
#131=VECTOR('',#224,1000.);
#132=EDGE_LOOP('',(#28,#29,#30,#31));
#133=EDGE_LOOP('',(#32,#33,#34,#35));
#134=EDGE_LOOP('',(#36,#37,#38,#39));
#135=EDGE_LOOP('',(#40,#41,#42,#43));
#136=EDGE_LOOP('',(#44,#45,#46,#47));
#137=EDGE_LOOP('',(#48,#49,#50,#51));
#138=EDGE_LOOP('',(#52,#53,#54,#55));
#139=EDGE_LOOP('',(#56,#57,#58,#59));
#140=EDGE_LOOP('',(#60,#61,#62,#63));
#141=EDGE_LOOP('',(#64,#65,#66,#67));
#142=FACE_BOUND('',#132,.T.);
#143=FACE_BOUND('',#133,.T.);
#144=FACE_BOUND('',#134,.T.);
#145=FACE_BOUND('',#135,.T.);
#146=FACE_BOUND('',#136,.T.);
#147=FACE_BOUND('',#137,.T.);
#148=FACE_BOUND('',#138,.T.);
#149=FACE_BOUND('',#139,.T.);
#150=FACE_BOUND('',#140,.T.);
#151=FACE_BOUND('',#141,.T.);
#152=PLANE('',#181);
#153=PLANE('',#182);
#154=PLANE('',#183);
#155=PLANE('',#184);
#156=PLANE('',#185);
#157=PLANE('',#186);
#158=ADVANCED_FACE('',(#142),#152,.T.);
#159=ADVANCED_FACE('',(#143),#153,.T.);
#160=ADVANCED_FACE('',(#144),#154,.T.);
#161=ADVANCED_FACE('',(#145),#155,.T.);
#162=ADVANCED_FACE('',(#146),#156,.F.);
#163=ADVANCED_FACE('',(#147),#157,.T.);
#164=ADVANCED_FACE('',(#148),#24,.T.);
#165=ADVANCED_FACE('',(#149),#25,.T.);
#166=ADVANCED_FACE('',(#150),#26,.T.);
#167=ADVANCED_FACE('',(#151),#27,.T.);
#168=CLOSED_SHELL('',(#158,#159,#160,#161,#162,#163,#164,#165,#166,#167));
#169=STYLED_ITEM('',(#170),#177);
#170=PRESENTATION_STYLE_ASSIGNMENT((#171));
#171=SURFACE_STYLE_USAGE(.BOTH.,#172);
#172=SURFACE_SIDE_STYLE('',(#173));
#173=SURFACE_STYLE_FILL_AREA(#174);
#174=FILL_AREA_STYLE('',(#175));
#175=FILL_AREA_STYLE_COLOUR('',#176);
#176=COLOUR_RGB('',0.506983280181885,0.531564235687256,0.550000011920929);
#177=MANIFOLD_SOLID_BREP('',#168);
#178=SHAPE_DEFINITION_REPRESENTATION(#290,#179);
#179=SHAPE_REPRESENTATION('SNP 8030 LED 230V',(#180),#285);
#180=AXIS2_PLACEMENT_3D('',#241,#195,#196);
#181=AXIS2_PLACEMENT_3D('',#242,#197,#198);
#182=AXIS2_PLACEMENT_3D('',#251,#203,#204);
#183=AXIS2_PLACEMENT_3D('',#257,#208,#209);
#184=AXIS2_PLACEMENT_3D('',#263,#213,#214);
#185=AXIS2_PLACEMENT_3D('',#266,#217,#218);
#186=AXIS2_PLACEMENT_3D('',#267,#219,#220);
#187=AXIS2_PLACEMENT_3D('',#276,#225,#226);
#188=AXIS2_PLACEMENT_3D('',#277,#227,#228);
#189=AXIS2_PLACEMENT_3D('',#278,#229,#230);
#190=AXIS2_PLACEMENT_3D('',#279,#231,#232);
#191=AXIS2_PLACEMENT_3D('',#280,#233,#234);
#192=AXIS2_PLACEMENT_3D('',#281,#235,#236);
#193=AXIS2_PLACEMENT_3D('',#282,#237,#238);
#194=AXIS2_PLACEMENT_3D('',#283,#239,#240);
#195=DIRECTION('',(0.,0.,1.));
#196=DIRECTION('',(1.,0.,0.));
#197=DIRECTION('',(0.,0.,1.));
#198=DIRECTION('',(1.,0.,0.));
#199=DIRECTION('',(0.,-1.,0.));
#200=DIRECTION('',(-1.,0.,0.));
#201=DIRECTION('',(0.,-1.,0.));
#202=DIRECTION('',(-1.,0.,0.));
#203=DIRECTION('',(-1.,0.,0.));
#204=DIRECTION('',(0.,0.,1.));
#205=DIRECTION('',(0.,-1.,0.));
#206=DIRECTION('',(0.,0.,-1.));
#207=DIRECTION('',(0.,0.,-1.));
#208=DIRECTION('',(0.,0.,-1.));
#209=DIRECTION('',(-1.,0.,0.));
#210=DIRECTION('',(0.,-1.,0.));
#211=DIRECTION('',(1.,0.,0.));
#212=DIRECTION('',(1.,0.,0.));
#213=DIRECTION('',(1.,0.,0.));
#214=DIRECTION('',(0.,0.,-1.));
#215=DIRECTION('',(0.,0.,1.));
#216=DIRECTION('',(0.,0.,1.));
#217=DIRECTION('',(0.,-1.,0.));
#218=DIRECTION('',(0.,0.,-1.));
#219=DIRECTION('',(0.,-1.,0.));
#220=DIRECTION('',(0.,0.,-1.));
#221=DIRECTION('',(0.,0.,-1.));
#222=DIRECTION('',(1.,0.,0.));
#223=DIRECTION('',(0.,0.,1.));
#224=DIRECTION('',(-1.,0.,0.));
#225=DIRECTION('',(-1.,0.,0.));
#226=DIRECTION('',(0.,0.,1.));
#227=DIRECTION('',(-0.707106781186547,0.,0.707106781186547));
#228=DIRECTION('',(-0.707106781186547,0.,-0.707106781186547));
#229=DIRECTION('',(-0.707106781186547,0.,-0.707106781186547));
#230=DIRECTION('',(-0.707106781186547,0.,0.707106781186547));
#231=DIRECTION('',(0.,0.,-1.));
#232=DIRECTION('',(-1.,0.,0.));
#233=DIRECTION('',(0.707106781186547,0.,-0.707106781186547));
#234=DIRECTION('',(-0.707106781186547,0.,-0.707106781186547));
#235=DIRECTION('',(0.,0.,1.));
#236=DIRECTION('',(1.,0.,0.));
#237=DIRECTION('',(0.707106781186547,0.,0.707106781186547));
#238=DIRECTION('',(-0.707106781186547,0.,0.707106781186547));
#239=DIRECTION('',(1.,0.,0.));
#240=DIRECTION('',(0.,0.,-1.));
#241=CARTESIAN_POINT('',(0.,0.,0.));
#242=CARTESIAN_POINT('',(160.,46.5,85.));
#243=CARTESIAN_POINT('',(-160.,46.5,85.));
#244=CARTESIAN_POINT('',(-160.,46.5,85.));
#245=CARTESIAN_POINT('',(-160.,2.00000000000002,85.));
#246=CARTESIAN_POINT('',(160.,2.,85.));
#247=CARTESIAN_POINT('',(160.,2.00000000000002,85.));
#248=CARTESIAN_POINT('',(160.,46.5,85.));
#249=CARTESIAN_POINT('',(160.,46.5,85.));
#250=CARTESIAN_POINT('',(160.,46.5,85.));
#251=CARTESIAN_POINT('',(-160.,46.5,85.));
#252=CARTESIAN_POINT('',(-160.,46.5,-85.));
#253=CARTESIAN_POINT('',(-160.,46.5,-85.));
#254=CARTESIAN_POINT('',(-160.,2.00000000000002,-85.));
#255=CARTESIAN_POINT('',(-160.,2.,85.));
#256=CARTESIAN_POINT('',(-160.,46.5,85.));
#257=CARTESIAN_POINT('',(-160.,46.5,-85.));
#258=CARTESIAN_POINT('',(160.,46.5,-85.));
#259=CARTESIAN_POINT('',(160.,46.5,-85.));
#260=CARTESIAN_POINT('',(160.,2.00000000000002,-85.));
#261=CARTESIAN_POINT('',(-160.,2.,-85.));
#262=CARTESIAN_POINT('',(-160.,46.5,-85.));
#263=CARTESIAN_POINT('',(160.,46.5,-85.));
#264=CARTESIAN_POINT('',(160.,2.,-85.));
#265=CARTESIAN_POINT('',(160.,46.5,-85.));
#266=CARTESIAN_POINT('',(0.,46.5,0.));
#267=CARTESIAN_POINT('',(0.,0.,0.));
#268=CARTESIAN_POINT('',(-158.,0.,0.));
#269=CARTESIAN_POINT('',(-158.,0.,83.));
#270=CARTESIAN_POINT('',(-158.,0.,-83.));
#271=CARTESIAN_POINT('',(0.,0.,-83.));
#272=CARTESIAN_POINT('',(158.,0.,-83.));
#273=CARTESIAN_POINT('',(158.,0.,0.));
#274=CARTESIAN_POINT('',(158.,0.,83.));
#275=CARTESIAN_POINT('',(0.,0.,83.));
#276=CARTESIAN_POINT('',(0.,2.,83.));
#277=CARTESIAN_POINT('',(158.,2.,83.));
#278=CARTESIAN_POINT('',(-158.,2.,83.));
#279=CARTESIAN_POINT('',(-158.,2.,0.));
#280=CARTESIAN_POINT('',(-158.,2.,-83.));
#281=CARTESIAN_POINT('',(158.,2.,0.));
#282=CARTESIAN_POINT('',(158.,2.,-83.));
#283=CARTESIAN_POINT('',(0.,2.,-83.));
#284=MECHANICAL_DESIGN_GEOMETRIC_PRESENTATION_REPRESENTATION('',(#169),
#285);
#285=(
GEOMETRIC_REPRESENTATION_CONTEXT(3)
GLOBAL_UNCERTAINTY_ASSIGNED_CONTEXT((#286))
GLOBAL_UNIT_ASSIGNED_CONTEXT((#289,#288,#287))
REPRESENTATION_CONTEXT('SNP 8030 LED 230V','TOP_LEVEL_ASSEMBLY_PART')
);
#286=UNCERTAINTY_MEASURE_WITH_UNIT(LENGTH_MEASURE(0.005),#289,
'DISTANCE_ACCURACY_VALUE','Maximum Tolerance applied to model');
#287=(
NAMED_UNIT(*)
SI_UNIT($,.STERADIAN.)
SOLID_ANGLE_UNIT()
);
#288=(
NAMED_UNIT(*)
PLANE_ANGLE_UNIT()
SI_UNIT($,.RADIAN.)
);
#289=(
LENGTH_UNIT()
NAMED_UNIT(*)
SI_UNIT(.MILLI.,.METRE.)
);
#290=PRODUCT_DEFINITION_SHAPE('','',#291);
#291=PRODUCT_DEFINITION('','',#293,#292);
#292=PRODUCT_DEFINITION_CONTEXT('',#299,'design');
#293=PRODUCT_DEFINITION_FORMATION_WITH_SPECIFIED_SOURCE('','',#295,
 .NOT_KNOWN.);
#294=PRODUCT_RELATED_PRODUCT_CATEGORY('','',(#295));
#295=PRODUCT('SNP 8030 LED 230V','SNP 8030 LED 230V',
'SNP 8030 LED 230V',(#297));
#296=PRODUCT_CATEGORY('','');
#297=PRODUCT_CONTEXT('',#299,'mechanical');
#298=APPLICATION_PROTOCOL_DEFINITION('international standard',
'automotive_design',2010,#299);
#299=APPLICATION_CONTEXT(
'core data for automotive mechanical design processes');
ENDSEC;
END-ISO-10303-21;
