ISO-10303-21;
HEADER;
/* Generated by software containing ST-Developer
 * from STEP Tools, Inc. (www.steptools.com) 
 */
/* OPTION: strings as raw bytes, not using required /X/ escapes */

FILE_DESCRIPTION(
/* description */ ('Unknown'),
/* implementation_level */ '2;1');

FILE_NAME(
/* name */ 'SNP 8030 D LED 230V',
/* time_stamp */ '2018-04-12T10:12:45+02:00',
/* author */ ('Unknown'),
/* organization */ ('Unknown'),
/* preprocessor_version */ 'ST-DEVELOPER v16.7',
/* originating_system */ 'DEX',
/* authorisation */ $);

FILE_SCHEMA (('AUTOMOTIVE_DESIGN {1 0 10303 214 3 1 1}'));
ENDSEC;

DATA;
#10=PROPERTY_DEFINITION_REPRESENTATION(#14,#12);
#11=PROPERTY_DEFINITION_REPRESENTATION(#15,#13);
#12=REPRESENTATION('',(#16),#355);
#13=REPRESENTATION('',(#17),#355);
#14=PROPERTY_DEFINITION('pmi validation property','',#360);
#15=PROPERTY_DEFINITION('pmi validation property','',#360);
#16=VALUE_REPRESENTATION_ITEM('number of annotations',COUNT_MEASURE(0.));
#17=VALUE_REPRESENTATION_ITEM('number of views',COUNT_MEASURE(0.));
#18=SHAPE_REPRESENTATION_RELATIONSHIP('','',#217,#19);
#19=ADVANCED_BREP_SHAPE_REPRESENTATION('',(#215),#355);
#20=ELLIPSE('',#230,2.82842712474619,2.);
#21=ELLIPSE('',#232,2.82842712474619,2.);
#22=ELLIPSE('',#235,2.82842712474619,2.);
#23=ELLIPSE('',#237,2.82842712474619,2.);
#24=CYLINDRICAL_SURFACE('',#229,2.);
#25=CYLINDRICAL_SURFACE('',#231,2.);
#26=CYLINDRICAL_SURFACE('',#233,2.);
#27=CYLINDRICAL_SURFACE('',#234,2.);
#28=CYLINDRICAL_SURFACE('',#236,2.);
#29=CYLINDRICAL_SURFACE('',#238,2.);
#30=CIRCLE('',#220,2.);
#31=CIRCLE('',#221,2.);
#32=CIRCLE('',#222,2.);
#33=CIRCLE('',#223,2.);
#34=ORIENTED_EDGE('',*,*,#86,.T.);
#35=ORIENTED_EDGE('',*,*,#87,.T.);
#36=ORIENTED_EDGE('',*,*,#88,.T.);
#37=ORIENTED_EDGE('',*,*,#89,.T.);
#38=ORIENTED_EDGE('',*,*,#90,.F.);
#39=ORIENTED_EDGE('',*,*,#91,.T.);
#40=ORIENTED_EDGE('',*,*,#92,.F.);
#41=ORIENTED_EDGE('',*,*,#93,.T.);
#42=ORIENTED_EDGE('',*,*,#88,.F.);
#43=ORIENTED_EDGE('',*,*,#94,.T.);
#44=ORIENTED_EDGE('',*,*,#95,.T.);
#45=ORIENTED_EDGE('',*,*,#96,.T.);
#46=ORIENTED_EDGE('',*,*,#95,.F.);
#47=ORIENTED_EDGE('',*,*,#97,.T.);
#48=ORIENTED_EDGE('',*,*,#98,.T.);
#49=ORIENTED_EDGE('',*,*,#99,.T.);
#50=ORIENTED_EDGE('',*,*,#98,.F.);
#51=ORIENTED_EDGE('',*,*,#100,.T.);
#52=ORIENTED_EDGE('',*,*,#92,.T.);
#53=ORIENTED_EDGE('',*,*,#101,.T.);
#54=ORIENTED_EDGE('',*,*,#102,.T.);
#55=ORIENTED_EDGE('',*,*,#103,.T.);
#56=ORIENTED_EDGE('',*,*,#86,.F.);
#57=ORIENTED_EDGE('',*,*,#104,.T.);
#58=ORIENTED_EDGE('',*,*,#105,.T.);
#59=ORIENTED_EDGE('',*,*,#106,.T.);
#60=ORIENTED_EDGE('',*,*,#90,.T.);
#61=ORIENTED_EDGE('',*,*,#107,.T.);
#62=ORIENTED_EDGE('',*,*,#89,.F.);
#63=ORIENTED_EDGE('',*,*,#96,.F.);
#64=ORIENTED_EDGE('',*,*,#108,.F.);
#65=ORIENTED_EDGE('',*,*,#107,.F.);
#66=ORIENTED_EDGE('',*,*,#108,.T.);
#67=ORIENTED_EDGE('',*,*,#99,.F.);
#68=ORIENTED_EDGE('',*,*,#109,.F.);
#69=ORIENTED_EDGE('',*,*,#105,.F.);
#70=ORIENTED_EDGE('',*,*,#109,.T.);
#71=ORIENTED_EDGE('',*,*,#101,.F.);
#72=ORIENTED_EDGE('',*,*,#91,.F.);
#73=ORIENTED_EDGE('',*,*,#106,.F.);
#74=ORIENTED_EDGE('',*,*,#93,.F.);
#75=ORIENTED_EDGE('',*,*,#100,.F.);
#76=ORIENTED_EDGE('',*,*,#110,.F.);
#77=ORIENTED_EDGE('',*,*,#104,.F.);
#78=ORIENTED_EDGE('',*,*,#110,.T.);
#79=ORIENTED_EDGE('',*,*,#97,.F.);
#80=ORIENTED_EDGE('',*,*,#111,.F.);
#81=ORIENTED_EDGE('',*,*,#102,.F.);
#82=ORIENTED_EDGE('',*,*,#87,.F.);
#83=ORIENTED_EDGE('',*,*,#103,.F.);
#84=ORIENTED_EDGE('',*,*,#111,.T.);
#85=ORIENTED_EDGE('',*,*,#94,.F.);
#86=EDGE_CURVE('',#112,#113,#128,.T.);
#87=EDGE_CURVE('',#113,#114,#30,.T.);
#88=EDGE_CURVE('',#114,#115,#129,.T.);
#89=EDGE_CURVE('',#115,#116,#31,.T.);
#90=EDGE_CURVE('',#117,#116,#130,.T.);
#91=EDGE_CURVE('',#117,#118,#32,.T.);
#92=EDGE_CURVE('',#119,#118,#131,.T.);
#93=EDGE_CURVE('',#119,#112,#33,.T.);
#94=EDGE_CURVE('',#114,#120,#132,.T.);
#95=EDGE_CURVE('',#120,#121,#133,.T.);
#96=EDGE_CURVE('',#121,#115,#134,.F.);
#97=EDGE_CURVE('',#120,#122,#135,.T.);
#98=EDGE_CURVE('',#122,#123,#136,.T.);
#99=EDGE_CURVE('',#123,#121,#137,.F.);
#100=EDGE_CURVE('',#122,#119,#138,.T.);
#101=EDGE_CURVE('',#118,#123,#139,.F.);
#102=EDGE_CURVE('',#124,#125,#140,.F.);
#103=EDGE_CURVE('',#125,#113,#141,.F.);
#104=EDGE_CURVE('',#112,#124,#142,.F.);
#105=EDGE_CURVE('',#126,#127,#143,.T.);
#106=EDGE_CURVE('',#127,#117,#144,.T.);
#107=EDGE_CURVE('',#116,#126,#145,.T.);
#108=EDGE_CURVE('',#126,#121,#20,.T.);
#109=EDGE_CURVE('',#127,#123,#21,.T.);
#110=EDGE_CURVE('',#124,#122,#22,.T.);
#111=EDGE_CURVE('',#125,#120,#23,.T.);
#112=VERTEX_POINT('',#302);
#113=VERTEX_POINT('',#303);
#114=VERTEX_POINT('',#305);
#115=VERTEX_POINT('',#307);
#116=VERTEX_POINT('',#309);
#117=VERTEX_POINT('',#311);
#118=VERTEX_POINT('',#313);
#119=VERTEX_POINT('',#315);
#120=VERTEX_POINT('',#319);
#121=VERTEX_POINT('',#321);
#122=VERTEX_POINT('',#325);
#123=VERTEX_POINT('',#327);
#124=VERTEX_POINT('',#334);
#125=VERTEX_POINT('',#335);
#126=VERTEX_POINT('',#340);
#127=VERTEX_POINT('',#341);
#128=LINE('',#301,#146);
#129=LINE('',#306,#147);
#130=LINE('',#310,#148);
#131=LINE('',#314,#149);
#132=LINE('',#318,#150);
#133=LINE('',#320,#151);
#134=LINE('',#322,#152);
#135=LINE('',#324,#153);
#136=LINE('',#326,#154);
#137=LINE('',#328,#155);
#138=LINE('',#330,#156);
#139=LINE('',#331,#157);
#140=LINE('',#333,#158);
#141=LINE('',#336,#159);
#142=LINE('',#337,#160);
#143=LINE('',#339,#161);
#144=LINE('',#342,#162);
#145=LINE('',#343,#163);
#146=VECTOR('',#243,1000.);
#147=VECTOR('',#246,1000.);
#148=VECTOR('',#249,1000.);
#149=VECTOR('',#252,1000.);
#150=VECTOR('',#257,1000.);
#151=VECTOR('',#258,1000.);
#152=VECTOR('',#259,1000.);
#153=VECTOR('',#262,1000.);
#154=VECTOR('',#263,1000.);
#155=VECTOR('',#264,1000.);
#156=VECTOR('',#267,1000.);
#157=VECTOR('',#268,1000.);
#158=VECTOR('',#271,1000.);
#159=VECTOR('',#272,1000.);
#160=VECTOR('',#273,1000.);
#161=VECTOR('',#276,1000.);
#162=VECTOR('',#277,1000.);
#163=VECTOR('',#278,1000.);
#164=EDGE_LOOP('',(#34,#35,#36,#37,#38,#39,#40,#41));
#165=EDGE_LOOP('',(#42,#43,#44,#45));
#166=EDGE_LOOP('',(#46,#47,#48,#49));
#167=EDGE_LOOP('',(#50,#51,#52,#53));
#168=EDGE_LOOP('',(#54,#55,#56,#57));
#169=EDGE_LOOP('',(#58,#59,#60,#61));
#170=EDGE_LOOP('',(#62,#63,#64,#65));
#171=EDGE_LOOP('',(#66,#67,#68,#69));
#172=EDGE_LOOP('',(#70,#71,#72,#73));
#173=EDGE_LOOP('',(#74,#75,#76,#77));
#174=EDGE_LOOP('',(#78,#79,#80,#81));
#175=EDGE_LOOP('',(#82,#83,#84,#85));
#176=FACE_BOUND('',#164,.T.);
#177=FACE_BOUND('',#165,.T.);
#178=FACE_BOUND('',#166,.T.);
#179=FACE_BOUND('',#167,.T.);
#180=FACE_BOUND('',#168,.T.);
#181=FACE_BOUND('',#169,.T.);
#182=FACE_BOUND('',#170,.T.);
#183=FACE_BOUND('',#171,.T.);
#184=FACE_BOUND('',#172,.T.);
#185=FACE_BOUND('',#173,.T.);
#186=FACE_BOUND('',#174,.T.);
#187=FACE_BOUND('',#175,.T.);
#188=PLANE('',#219);
#189=PLANE('',#224);
#190=PLANE('',#225);
#191=PLANE('',#226);
#192=PLANE('',#227);
#193=PLANE('',#228);
#194=ADVANCED_FACE('',(#176),#188,.T.);
#195=ADVANCED_FACE('',(#177),#189,.T.);
#196=ADVANCED_FACE('',(#178),#190,.T.);
#197=ADVANCED_FACE('',(#179),#191,.T.);
#198=ADVANCED_FACE('',(#180),#192,.F.);
#199=ADVANCED_FACE('',(#181),#193,.T.);
#200=ADVANCED_FACE('',(#182),#24,.T.);
#201=ADVANCED_FACE('',(#183),#25,.T.);
#202=ADVANCED_FACE('',(#184),#26,.T.);
#203=ADVANCED_FACE('',(#185),#27,.T.);
#204=ADVANCED_FACE('',(#186),#28,.T.);
#205=ADVANCED_FACE('',(#187),#29,.T.);
#206=CLOSED_SHELL('',(#194,#195,#196,#197,#198,#199,#200,#201,#202,#203,
#204,#205));
#207=STYLED_ITEM('',(#208),#215);
#208=PRESENTATION_STYLE_ASSIGNMENT((#209));
#209=SURFACE_STYLE_USAGE(.BOTH.,#210);
#210=SURFACE_SIDE_STYLE('',(#211));
#211=SURFACE_STYLE_FILL_AREA(#212);
#212=FILL_AREA_STYLE('',(#213));
#213=FILL_AREA_STYLE_COLOUR('',#214);
#214=COLOUR_RGB('',0.506983280181885,0.531564235687256,0.550000011920929);
#215=MANIFOLD_SOLID_BREP('',#206);
#216=SHAPE_DEFINITION_REPRESENTATION(#360,#217);
#217=SHAPE_REPRESENTATION('SNP 8030 D LED 230V',(#218),#355);
#218=AXIS2_PLACEMENT_3D('',#299,#239,#240);
#219=AXIS2_PLACEMENT_3D('',#300,#241,#242);
#220=AXIS2_PLACEMENT_3D('',#304,#244,#245);
#221=AXIS2_PLACEMENT_3D('',#308,#247,#248);
#222=AXIS2_PLACEMENT_3D('',#312,#250,#251);
#223=AXIS2_PLACEMENT_3D('',#316,#253,#254);
#224=AXIS2_PLACEMENT_3D('',#317,#255,#256);
#225=AXIS2_PLACEMENT_3D('',#323,#260,#261);
#226=AXIS2_PLACEMENT_3D('',#329,#265,#266);
#227=AXIS2_PLACEMENT_3D('',#332,#269,#270);
#228=AXIS2_PLACEMENT_3D('',#338,#274,#275);
#229=AXIS2_PLACEMENT_3D('',#344,#279,#280);
#230=AXIS2_PLACEMENT_3D('',#345,#281,#282);
#231=AXIS2_PLACEMENT_3D('',#346,#283,#284);
#232=AXIS2_PLACEMENT_3D('',#347,#285,#286);
#233=AXIS2_PLACEMENT_3D('',#348,#287,#288);
#234=AXIS2_PLACEMENT_3D('',#349,#289,#290);
#235=AXIS2_PLACEMENT_3D('',#350,#291,#292);
#236=AXIS2_PLACEMENT_3D('',#351,#293,#294);
#237=AXIS2_PLACEMENT_3D('',#352,#295,#296);
#238=AXIS2_PLACEMENT_3D('',#353,#297,#298);
#239=DIRECTION('',(0.,0.,1.));
#240=DIRECTION('',(1.,0.,0.));
#241=DIRECTION('',(0.,0.,1.));
#242=DIRECTION('',(1.,0.,0.));
#243=DIRECTION('',(-1.,0.,0.));
#244=DIRECTION('',(0.,0.,1.));
#245=DIRECTION('',(1.,0.,0.));
#246=DIRECTION('',(0.,-1.,0.));
#247=DIRECTION('',(0.,0.,1.));
#248=DIRECTION('',(1.,0.,0.));
#249=DIRECTION('',(-1.,0.,0.));
#250=DIRECTION('',(0.,0.,1.));
#251=DIRECTION('',(1.,0.,0.));
#252=DIRECTION('',(0.,-1.,0.));
#253=DIRECTION('',(0.,0.,1.));
#254=DIRECTION('',(1.,0.,0.));
#255=DIRECTION('',(-1.,0.,0.));
#256=DIRECTION('',(0.,0.,1.));
#257=DIRECTION('',(0.,0.,-1.));
#258=DIRECTION('',(0.,-1.,0.));
#259=DIRECTION('',(0.,0.,-1.));
#260=DIRECTION('',(0.,0.,-1.));
#261=DIRECTION('',(-1.,0.,0.));
#262=DIRECTION('',(1.,0.,0.));
#263=DIRECTION('',(0.,-1.,0.));
#264=DIRECTION('',(1.,0.,0.));
#265=DIRECTION('',(1.,0.,0.));
#266=DIRECTION('',(0.,0.,-1.));
#267=DIRECTION('',(0.,0.,1.));
#268=DIRECTION('',(0.,0.,1.));
#269=DIRECTION('',(0.,-1.,0.));
#270=DIRECTION('',(0.,0.,-1.));
#271=DIRECTION('',(1.,0.,0.));
#272=DIRECTION('',(0.,0.,-1.));
#273=DIRECTION('',(0.,0.,1.));
#274=DIRECTION('',(0.,-1.,0.));
#275=DIRECTION('',(0.,0.,-1.));
#276=DIRECTION('',(1.,0.,0.));
#277=DIRECTION('',(0.,0.,1.));
#278=DIRECTION('',(0.,0.,-1.));
#279=DIRECTION('',(0.,0.,-1.));
#280=DIRECTION('',(-1.,0.,0.));
#281=DIRECTION('',(0.707106781186547,0.,-0.707106781186547));
#282=DIRECTION('',(-0.707106781186547,0.,-0.707106781186547));
#283=DIRECTION('',(1.,0.,0.));
#284=DIRECTION('',(0.,0.,-1.));
#285=DIRECTION('',(0.707106781186547,0.,0.707106781186547));
#286=DIRECTION('',(0.707106781186547,0.,-0.707106781186547));
#287=DIRECTION('',(0.,0.,1.));
#288=DIRECTION('',(1.,0.,0.));
#289=DIRECTION('',(0.,0.,-1.));
#290=DIRECTION('',(-1.,0.,0.));
#291=DIRECTION('',(-0.707106781186547,0.,-0.707106781186547));
#292=DIRECTION('',(0.707106781186547,0.,-0.707106781186547));
#293=DIRECTION('',(-1.,0.,0.));
#294=DIRECTION('',(0.,0.,1.));
#295=DIRECTION('',(-0.707106781186547,0.,0.707106781186547));
#296=DIRECTION('',(-0.707106781186547,0.,-0.707106781186547));
#297=DIRECTION('',(0.,0.,1.));
#298=DIRECTION('',(1.,0.,0.));
#299=CARTESIAN_POINT('',(0.,0.,0.));
#300=CARTESIAN_POINT('',(160.,80.5,100.));
#301=CARTESIAN_POINT('',(160.,80.5,100.));
#302=CARTESIAN_POINT('',(158.,80.5,100.));
#303=CARTESIAN_POINT('',(-158.,80.5,100.));
#304=CARTESIAN_POINT('',(-158.,78.5,100.));
#305=CARTESIAN_POINT('',(-160.,78.5,100.));
#306=CARTESIAN_POINT('',(-160.,80.5,100.));
#307=CARTESIAN_POINT('',(-160.,2.,100.));
#308=CARTESIAN_POINT('',(-158.,2.,100.));
#309=CARTESIAN_POINT('',(-158.,0.,100.));
#310=CARTESIAN_POINT('',(160.,0.,100.));
#311=CARTESIAN_POINT('',(158.,0.,100.));
#312=CARTESIAN_POINT('',(158.,2.,100.));
#313=CARTESIAN_POINT('',(160.,2.,100.));
#314=CARTESIAN_POINT('',(160.,80.5,100.));
#315=CARTESIAN_POINT('',(160.,78.5,100.));
#316=CARTESIAN_POINT('',(158.,78.5,100.));
#317=CARTESIAN_POINT('',(-160.,80.5,100.));
#318=CARTESIAN_POINT('',(-160.,78.5,-100.));
#319=CARTESIAN_POINT('',(-160.,78.5,-100.));
#320=CARTESIAN_POINT('',(-160.,80.5,-100.));
#321=CARTESIAN_POINT('',(-160.,2.,-100.));
#322=CARTESIAN_POINT('',(-160.,2.,100.));
#323=CARTESIAN_POINT('',(-160.,80.5,-100.));
#324=CARTESIAN_POINT('',(160.,78.5,-100.));
#325=CARTESIAN_POINT('',(160.,78.5,-100.));
#326=CARTESIAN_POINT('',(160.,80.5,-100.));
#327=CARTESIAN_POINT('',(160.,2.,-100.));
#328=CARTESIAN_POINT('',(-160.,2.,-100.));
#329=CARTESIAN_POINT('',(160.,80.5,-100.));
#330=CARTESIAN_POINT('',(160.,78.5,100.));
#331=CARTESIAN_POINT('',(160.,2.,-100.));
#332=CARTESIAN_POINT('',(0.,80.5,0.));
#333=CARTESIAN_POINT('',(-160.,80.5,-98.));
#334=CARTESIAN_POINT('',(158.,80.5,-98.));
#335=CARTESIAN_POINT('',(-158.,80.5,-98.));
#336=CARTESIAN_POINT('',(-158.,80.5,100.));
#337=CARTESIAN_POINT('',(158.,80.5,-100.));
#338=CARTESIAN_POINT('',(0.,0.,0.));
#339=CARTESIAN_POINT('',(0.,0.,-98.));
#340=CARTESIAN_POINT('',(-158.,0.,-98.));
#341=CARTESIAN_POINT('',(158.,0.,-98.));
#342=CARTESIAN_POINT('',(158.,0.,0.));
#343=CARTESIAN_POINT('',(-158.,0.,0.));
#344=CARTESIAN_POINT('',(-158.,2.,0.));
#345=CARTESIAN_POINT('',(-158.,2.,-98.));
#346=CARTESIAN_POINT('',(0.,2.,-98.));
#347=CARTESIAN_POINT('',(158.,2.,-98.));
#348=CARTESIAN_POINT('',(158.,2.,0.));
#349=CARTESIAN_POINT('',(158.,78.5,-100.));
#350=CARTESIAN_POINT('',(158.,78.5,-98.));
#351=CARTESIAN_POINT('',(-160.,78.5,-98.));
#352=CARTESIAN_POINT('',(-158.,78.5,-98.));
#353=CARTESIAN_POINT('',(-158.,78.5,100.));
#354=MECHANICAL_DESIGN_GEOMETRIC_PRESENTATION_REPRESENTATION('',(#207),
#355);
#355=(
GEOMETRIC_REPRESENTATION_CONTEXT(3)
GLOBAL_UNCERTAINTY_ASSIGNED_CONTEXT((#356))
GLOBAL_UNIT_ASSIGNED_CONTEXT((#359,#358,#357))
REPRESENTATION_CONTEXT('SNP 8030 D LED 230V','TOP_LEVEL_ASSEMBLY_PART')
);
#356=UNCERTAINTY_MEASURE_WITH_UNIT(LENGTH_MEASURE(0.005),#359,
'DISTANCE_ACCURACY_VALUE','Maximum Tolerance applied to model');
#357=(
NAMED_UNIT(*)
SI_UNIT($,.STERADIAN.)
SOLID_ANGLE_UNIT()
);
#358=(
NAMED_UNIT(*)
PLANE_ANGLE_UNIT()
SI_UNIT($,.RADIAN.)
);
#359=(
LENGTH_UNIT()
NAMED_UNIT(*)
SI_UNIT(.MILLI.,.METRE.)
);
#360=PRODUCT_DEFINITION_SHAPE('','',#361);
#361=PRODUCT_DEFINITION('','',#363,#362);
#362=PRODUCT_DEFINITION_CONTEXT('',#369,'design');
#363=PRODUCT_DEFINITION_FORMATION_WITH_SPECIFIED_SOURCE('','',#365,
 .NOT_KNOWN.);
#364=PRODUCT_RELATED_PRODUCT_CATEGORY('','',(#365));
#365=PRODUCT('SNP 8030 D LED 230V','SNP 8030 D LED 230V',
'SNP 8030 D LED 230V',(#367));
#366=PRODUCT_CATEGORY('','');
#367=PRODUCT_CONTEXT('',#369,'mechanical');
#368=APPLICATION_PROTOCOL_DEFINITION('international standard',
'automotive_design',2010,#369);
#369=APPLICATION_CONTEXT(
'core data for automotive mechanical design processes');
ENDSEC;
END-ISO-10303-21;
