ISO-10303-21;
HEADER;
/* Generated by software containing ST-Developer
 * from STEP Tools, Inc. (www.steptools.com) 
 */
/* OPTION: strings as raw bytes, not using required /X/ escapes */

FILE_DESCRIPTION(
/* description */ ('Unknown'),
/* implementation_level */ '2;1');

FILE_NAME(
/* name */ 'SN 2900',
/* time_stamp */ '2025-01-28T09:25:00+01:00',
/* author */ ('Unknown'),
/* organization */ ('Unknown'),
/* preprocessor_version */ 'ST-DEVELOPER v19.4',
/* originating_system */ 'Solid Edge',
/* authorisation */ 'Unknown');

FILE_SCHEMA (('AUTOMOTIVE_DESIGN {1 0 10303 214 3 1 1}'));
ENDSEC;

DATA;
#10=PROPERTY_DEFINITION_REPRESENTATION(#14,#12);
#11=PROPERTY_DEFINITION_REPRESENTATION(#15,#13);
#12=REPRESENTATION('',(#16),#591);
#13=REPRESENTATION('',(#17),#591);
#14=PROPERTY_DEFINITION('pmi validation property','',#596);
#15=PROPERTY_DEFINITION('pmi validation property','',#596);
#16=VALUE_REPRESENTATION_ITEM('number of annotations',COUNT_MEASURE(0.));
#17=VALUE_REPRESENTATION_ITEM('number of views',COUNT_MEASURE(0.));
#18=SHAPE_REPRESENTATION_RELATIONSHIP('','',#381,#19);
#19=ADVANCED_BREP_SHAPE_REPRESENTATION('',(#379),#591);
#20=ORIENTED_EDGE('',*,*,#116,.F.);
#21=ORIENTED_EDGE('',*,*,#117,.F.);
#22=ORIENTED_EDGE('',*,*,#118,.T.);
#23=ORIENTED_EDGE('',*,*,#119,.T.);
#24=ORIENTED_EDGE('',*,*,#120,.F.);
#25=ORIENTED_EDGE('',*,*,#121,.F.);
#26=ORIENTED_EDGE('',*,*,#122,.F.);
#27=ORIENTED_EDGE('',*,*,#123,.T.);
#28=ORIENTED_EDGE('',*,*,#124,.F.);
#29=ORIENTED_EDGE('',*,*,#125,.T.);
#30=ORIENTED_EDGE('',*,*,#126,.T.);
#31=ORIENTED_EDGE('',*,*,#117,.T.);
#32=ORIENTED_EDGE('',*,*,#127,.T.);
#33=ORIENTED_EDGE('',*,*,#128,.T.);
#34=ORIENTED_EDGE('',*,*,#129,.T.);
#35=ORIENTED_EDGE('',*,*,#121,.T.);
#36=ORIENTED_EDGE('',*,*,#130,.T.);
#37=ORIENTED_EDGE('',*,*,#131,.T.);
#38=ORIENTED_EDGE('',*,*,#132,.F.);
#39=ORIENTED_EDGE('',*,*,#133,.F.);
#40=ORIENTED_EDGE('',*,*,#134,.F.);
#41=ORIENTED_EDGE('',*,*,#135,.F.);
#42=ORIENTED_EDGE('',*,*,#136,.T.);
#43=ORIENTED_EDGE('',*,*,#137,.T.);
#44=ORIENTED_EDGE('',*,*,#138,.F.);
#45=ORIENTED_EDGE('',*,*,#137,.F.);
#46=ORIENTED_EDGE('',*,*,#139,.T.);
#47=ORIENTED_EDGE('',*,*,#140,.T.);
#48=ORIENTED_EDGE('',*,*,#141,.F.);
#49=ORIENTED_EDGE('',*,*,#140,.F.);
#50=ORIENTED_EDGE('',*,*,#142,.T.);
#51=ORIENTED_EDGE('',*,*,#143,.T.);
#52=ORIENTED_EDGE('',*,*,#144,.F.);
#53=ORIENTED_EDGE('',*,*,#143,.F.);
#54=ORIENTED_EDGE('',*,*,#145,.T.);
#55=ORIENTED_EDGE('',*,*,#135,.T.);
#56=ORIENTED_EDGE('',*,*,#136,.F.);
#57=ORIENTED_EDGE('',*,*,#145,.F.);
#58=ORIENTED_EDGE('',*,*,#142,.F.);
#59=ORIENTED_EDGE('',*,*,#139,.F.);
#60=ORIENTED_EDGE('',*,*,#119,.F.);
#61=ORIENTED_EDGE('',*,*,#146,.F.);
#62=ORIENTED_EDGE('',*,*,#147,.F.);
#63=ORIENTED_EDGE('',*,*,#148,.F.);
#64=ORIENTED_EDGE('',*,*,#134,.T.);
#65=ORIENTED_EDGE('',*,*,#138,.T.);
#66=ORIENTED_EDGE('',*,*,#141,.T.);
#67=ORIENTED_EDGE('',*,*,#144,.T.);
#68=ORIENTED_EDGE('',*,*,#148,.T.);
#69=ORIENTED_EDGE('',*,*,#149,.F.);
#70=ORIENTED_EDGE('',*,*,#130,.F.);
#71=ORIENTED_EDGE('',*,*,#120,.T.);
#72=ORIENTED_EDGE('',*,*,#125,.F.);
#73=ORIENTED_EDGE('',*,*,#150,.T.);
#74=ORIENTED_EDGE('',*,*,#151,.F.);
#75=ORIENTED_EDGE('',*,*,#152,.T.);
#76=ORIENTED_EDGE('',*,*,#131,.F.);
#77=ORIENTED_EDGE('',*,*,#149,.T.);
#78=ORIENTED_EDGE('',*,*,#147,.T.);
#79=ORIENTED_EDGE('',*,*,#153,.F.);
#80=ORIENTED_EDGE('',*,*,#146,.T.);
#81=ORIENTED_EDGE('',*,*,#118,.F.);
#82=ORIENTED_EDGE('',*,*,#126,.F.);
#83=ORIENTED_EDGE('',*,*,#153,.T.);
#84=ORIENTED_EDGE('',*,*,#154,.F.);
#85=ORIENTED_EDGE('',*,*,#155,.F.);
#86=ORIENTED_EDGE('',*,*,#156,.F.);
#87=ORIENTED_EDGE('',*,*,#123,.F.);
#88=ORIENTED_EDGE('',*,*,#116,.T.);
#89=ORIENTED_EDGE('',*,*,#156,.T.);
#90=ORIENTED_EDGE('',*,*,#157,.T.);
#91=ORIENTED_EDGE('',*,*,#127,.F.);
#92=ORIENTED_EDGE('',*,*,#122,.T.);
#93=ORIENTED_EDGE('',*,*,#129,.F.);
#94=ORIENTED_EDGE('',*,*,#158,.F.);
#95=ORIENTED_EDGE('',*,*,#154,.T.);
#96=ORIENTED_EDGE('',*,*,#128,.F.);
#97=ORIENTED_EDGE('',*,*,#157,.F.);
#98=ORIENTED_EDGE('',*,*,#155,.T.);
#99=ORIENTED_EDGE('',*,*,#158,.T.);
#100=ORIENTED_EDGE('',*,*,#151,.T.);
#101=ORIENTED_EDGE('',*,*,#159,.T.);
#102=ORIENTED_EDGE('',*,*,#160,.T.);
#103=ORIENTED_EDGE('',*,*,#161,.T.);
#104=ORIENTED_EDGE('',*,*,#124,.T.);
#105=ORIENTED_EDGE('',*,*,#162,.F.);
#106=ORIENTED_EDGE('',*,*,#159,.F.);
#107=ORIENTED_EDGE('',*,*,#150,.F.);
#108=ORIENTED_EDGE('',*,*,#161,.F.);
#109=ORIENTED_EDGE('',*,*,#163,.T.);
#110=ORIENTED_EDGE('',*,*,#132,.T.);
#111=ORIENTED_EDGE('',*,*,#152,.F.);
#112=ORIENTED_EDGE('',*,*,#133,.T.);
#113=ORIENTED_EDGE('',*,*,#163,.F.);
#114=ORIENTED_EDGE('',*,*,#160,.F.);
#115=ORIENTED_EDGE('',*,*,#162,.T.);
#116=EDGE_CURVE('',#164,#165,#196,.F.);
#117=EDGE_CURVE('',#166,#164,#197,.F.);
#118=EDGE_CURVE('',#166,#167,#198,.T.);
#119=EDGE_CURVE('',#167,#168,#199,.F.);
#120=EDGE_CURVE('',#169,#168,#200,.T.);
#121=EDGE_CURVE('',#170,#169,#201,.F.);
#122=EDGE_CURVE('',#171,#170,#202,.F.);
#123=EDGE_CURVE('',#171,#165,#203,.F.);
#124=EDGE_CURVE('',#172,#173,#204,.T.);
#125=EDGE_CURVE('',#172,#174,#205,.F.);
#126=EDGE_CURVE('',#174,#166,#206,.F.);
#127=EDGE_CURVE('',#164,#175,#207,.T.);
#128=EDGE_CURVE('',#175,#176,#208,.T.);
#129=EDGE_CURVE('',#176,#170,#209,.T.);
#130=EDGE_CURVE('',#169,#177,#210,.F.);
#131=EDGE_CURVE('',#177,#178,#211,.F.);
#132=EDGE_CURVE('',#179,#178,#212,.T.);
#133=EDGE_CURVE('',#173,#179,#213,.T.);
#134=EDGE_CURVE('',#180,#181,#214,.T.);
#135=EDGE_CURVE('',#182,#180,#215,.T.);
#136=EDGE_CURVE('',#182,#183,#216,.T.);
#137=EDGE_CURVE('',#183,#181,#217,.T.);
#138=EDGE_CURVE('',#181,#184,#218,.T.);
#139=EDGE_CURVE('',#183,#185,#219,.T.);
#140=EDGE_CURVE('',#185,#184,#220,.T.);
#141=EDGE_CURVE('',#184,#186,#221,.T.);
#142=EDGE_CURVE('',#185,#187,#222,.T.);
#143=EDGE_CURVE('',#187,#186,#223,.T.);
#144=EDGE_CURVE('',#186,#180,#224,.T.);
#145=EDGE_CURVE('',#187,#182,#225,.T.);
#146=EDGE_CURVE('',#188,#167,#226,.F.);
#147=EDGE_CURVE('',#189,#188,#227,.F.);
#148=EDGE_CURVE('',#168,#189,#228,.F.);
#149=EDGE_CURVE('',#177,#189,#229,.T.);
#150=EDGE_CURVE('',#172,#190,#230,.F.);
#151=EDGE_CURVE('',#191,#190,#231,.F.);
#152=EDGE_CURVE('',#191,#178,#232,.F.);
#153=EDGE_CURVE('',#174,#188,#233,.T.);
#154=EDGE_CURVE('',#192,#171,#234,.T.);
#155=EDGE_CURVE('',#193,#192,#235,.T.);
#156=EDGE_CURVE('',#165,#193,#236,.T.);
#157=EDGE_CURVE('',#193,#175,#237,.T.);
#158=EDGE_CURVE('',#192,#176,#238,.T.);
#159=EDGE_CURVE('',#190,#194,#239,.T.);
#160=EDGE_CURVE('',#194,#195,#240,.T.);
#161=EDGE_CURVE('',#195,#191,#241,.T.);
#162=EDGE_CURVE('',#194,#173,#242,.T.);
#163=EDGE_CURVE('',#195,#179,#243,.T.);
#164=VERTEX_POINT('',#493);
#165=VERTEX_POINT('',#494);
#166=VERTEX_POINT('',#496);
#167=VERTEX_POINT('',#498);
#168=VERTEX_POINT('',#500);
#169=VERTEX_POINT('',#502);
#170=VERTEX_POINT('',#504);
#171=VERTEX_POINT('',#506);
#172=VERTEX_POINT('',#510);
#173=VERTEX_POINT('',#511);
#174=VERTEX_POINT('',#513);
#175=VERTEX_POINT('',#516);
#176=VERTEX_POINT('',#518);
#177=VERTEX_POINT('',#521);
#178=VERTEX_POINT('',#523);
#179=VERTEX_POINT('',#525);
#180=VERTEX_POINT('',#529);
#181=VERTEX_POINT('',#530);
#182=VERTEX_POINT('',#532);
#183=VERTEX_POINT('',#534);
#184=VERTEX_POINT('',#538);
#185=VERTEX_POINT('',#540);
#186=VERTEX_POINT('',#544);
#187=VERTEX_POINT('',#546);
#188=VERTEX_POINT('',#554);
#189=VERTEX_POINT('',#556);
#190=VERTEX_POINT('',#562);
#191=VERTEX_POINT('',#564);
#192=VERTEX_POINT('',#570);
#193=VERTEX_POINT('',#572);
#194=VERTEX_POINT('',#581);
#195=VERTEX_POINT('',#583);
#196=LINE('',#492,#244);
#197=LINE('',#495,#245);
#198=LINE('',#497,#246);
#199=LINE('',#499,#247);
#200=LINE('',#501,#248);
#201=LINE('',#503,#249);
#202=LINE('',#505,#250);
#203=LINE('',#507,#251);
#204=LINE('',#509,#252);
#205=LINE('',#512,#253);
#206=LINE('',#514,#254);
#207=LINE('',#515,#255);
#208=LINE('',#517,#256);
#209=LINE('',#519,#257);
#210=LINE('',#520,#258);
#211=LINE('',#522,#259);
#212=LINE('',#524,#260);
#213=LINE('',#526,#261);
#214=LINE('',#528,#262);
#215=LINE('',#531,#263);
#216=LINE('',#533,#264);
#217=LINE('',#535,#265);
#218=LINE('',#537,#266);
#219=LINE('',#539,#267);
#220=LINE('',#541,#268);
#221=LINE('',#543,#269);
#222=LINE('',#545,#270);
#223=LINE('',#547,#271);
#224=LINE('',#549,#272);
#225=LINE('',#550,#273);
#226=LINE('',#553,#274);
#227=LINE('',#555,#275);
#228=LINE('',#557,#276);
#229=LINE('',#559,#277);
#230=LINE('',#561,#278);
#231=LINE('',#563,#279);
#232=LINE('',#565,#280);
#233=LINE('',#566,#281);
#234=LINE('',#569,#282);
#235=LINE('',#571,#283);
#236=LINE('',#573,#284);
#237=LINE('',#575,#285);
#238=LINE('',#577,#286);
#239=LINE('',#580,#287);
#240=LINE('',#582,#288);
#241=LINE('',#584,#289);
#242=LINE('',#586,#290);
#243=LINE('',#588,#291);
#244=VECTOR('',#406,1000.);
#245=VECTOR('',#407,1000.);
#246=VECTOR('',#408,1000.);
#247=VECTOR('',#409,1000.);
#248=VECTOR('',#410,1000.);
#249=VECTOR('',#411,1000.);
#250=VECTOR('',#412,1000.);
#251=VECTOR('',#413,1000.);
#252=VECTOR('',#416,1000.);
#253=VECTOR('',#417,1000.);
#254=VECTOR('',#418,1000.);
#255=VECTOR('',#419,1000.);
#256=VECTOR('',#420,1000.);
#257=VECTOR('',#421,1000.);
#258=VECTOR('',#422,1000.);
#259=VECTOR('',#423,1000.);
#260=VECTOR('',#424,1000.);
#261=VECTOR('',#425,1000.);
#262=VECTOR('',#428,1000.);
#263=VECTOR('',#429,1000.);
#264=VECTOR('',#430,1000.);
#265=VECTOR('',#431,1000.);
#266=VECTOR('',#434,1000.);
#267=VECTOR('',#435,1000.);
#268=VECTOR('',#436,1000.);
#269=VECTOR('',#439,1000.);
#270=VECTOR('',#440,1000.);
#271=VECTOR('',#441,1000.);
#272=VECTOR('',#444,1000.);
#273=VECTOR('',#445,1000.);
#274=VECTOR('',#450,1000.);
#275=VECTOR('',#451,1000.);
#276=VECTOR('',#452,1000.);
#277=VECTOR('',#455,1000.);
#278=VECTOR('',#458,1000.);
#279=VECTOR('',#459,1000.);
#280=VECTOR('',#460,1000.);
#281=VECTOR('',#461,1000.);
#282=VECTOR('',#466,1000.);
#283=VECTOR('',#467,1000.);
#284=VECTOR('',#468,1000.);
#285=VECTOR('',#471,1000.);
#286=VECTOR('',#474,1000.);
#287=VECTOR('',#479,1000.);
#288=VECTOR('',#480,1000.);
#289=VECTOR('',#481,1000.);
#290=VECTOR('',#484,1000.);
#291=VECTOR('',#487,1000.);
#292=EDGE_LOOP('',(#20,#21,#22,#23,#24,#25,#26,#27));
#293=EDGE_LOOP('',(#28,#29,#30,#31,#32,#33,#34,#35,#36,#37,#38,#39));
#294=EDGE_LOOP('',(#40,#41,#42,#43));
#295=EDGE_LOOP('',(#44,#45,#46,#47));
#296=EDGE_LOOP('',(#48,#49,#50,#51));
#297=EDGE_LOOP('',(#52,#53,#54,#55));
#298=EDGE_LOOP('',(#56,#57,#58,#59));
#299=EDGE_LOOP('',(#60,#61,#62,#63));
#300=EDGE_LOOP('',(#64,#65,#66,#67));
#301=EDGE_LOOP('',(#68,#69,#70,#71));
#302=EDGE_LOOP('',(#72,#73,#74,#75,#76,#77,#78,#79));
#303=EDGE_LOOP('',(#80,#81,#82,#83));
#304=EDGE_LOOP('',(#84,#85,#86,#87));
#305=EDGE_LOOP('',(#88,#89,#90,#91));
#306=EDGE_LOOP('',(#92,#93,#94,#95));
#307=EDGE_LOOP('',(#96,#97,#98,#99));
#308=EDGE_LOOP('',(#100,#101,#102,#103));
#309=EDGE_LOOP('',(#104,#105,#106,#107));
#310=EDGE_LOOP('',(#108,#109,#110,#111));
#311=EDGE_LOOP('',(#112,#113,#114,#115));
#312=FACE_BOUND('',#292,.T.);
#313=FACE_BOUND('',#293,.T.);
#314=FACE_BOUND('',#294,.T.);
#315=FACE_BOUND('',#295,.T.);
#316=FACE_BOUND('',#296,.T.);
#317=FACE_BOUND('',#297,.T.);
#318=FACE_BOUND('',#298,.T.);
#319=FACE_BOUND('',#299,.T.);
#320=FACE_BOUND('',#300,.T.);
#321=FACE_BOUND('',#301,.T.);
#322=FACE_BOUND('',#302,.T.);
#323=FACE_BOUND('',#303,.T.);
#324=FACE_BOUND('',#304,.T.);
#325=FACE_BOUND('',#305,.T.);
#326=FACE_BOUND('',#306,.T.);
#327=FACE_BOUND('',#307,.T.);
#328=FACE_BOUND('',#308,.T.);
#329=FACE_BOUND('',#309,.T.);
#330=FACE_BOUND('',#310,.T.);
#331=FACE_BOUND('',#311,.T.);
#332=PLANE('',#383);
#333=PLANE('',#384);
#334=PLANE('',#385);
#335=PLANE('',#386);
#336=PLANE('',#387);
#337=PLANE('',#388);
#338=PLANE('',#389);
#339=PLANE('',#390);
#340=PLANE('',#391);
#341=PLANE('',#392);
#342=PLANE('',#393);
#343=PLANE('',#394);
#344=PLANE('',#395);
#345=PLANE('',#396);
#346=PLANE('',#397);
#347=PLANE('',#398);
#348=PLANE('',#399);
#349=PLANE('',#400);
#350=PLANE('',#401);
#351=ADVANCED_FACE('',(#312),#332,.T.);
#352=ADVANCED_FACE('',(#313),#333,.T.);
#353=ADVANCED_FACE('',(#314),#334,.T.);
#354=ADVANCED_FACE('',(#315),#335,.T.);
#355=ADVANCED_FACE('',(#316),#336,.T.);
#356=ADVANCED_FACE('',(#317),#337,.T.);
#357=ADVANCED_FACE('',(#318),#338,.F.);
#358=ADVANCED_FACE('',(#319,#320),#339,.T.);
#359=ADVANCED_FACE('',(#321),#340,.T.);
#360=ADVANCED_FACE('',(#322),#341,.T.);
#361=ADVANCED_FACE('',(#323),#342,.T.);
#362=ADVANCED_FACE('',(#324),#343,.F.);
#363=ADVANCED_FACE('',(#325),#344,.T.);
#364=ADVANCED_FACE('',(#326),#345,.T.);
#365=ADVANCED_FACE('',(#327),#346,.T.);
#366=ADVANCED_FACE('',(#328),#347,.T.);
#367=ADVANCED_FACE('',(#329),#348,.F.);
#368=ADVANCED_FACE('',(#330),#349,.F.);
#369=ADVANCED_FACE('',(#331),#350,.F.);
#370=CLOSED_SHELL('',(#351,#352,#353,#354,#355,#356,#357,#358,#359,#360,
#361,#362,#363,#364,#365,#366,#367,#368,#369));
#371=STYLED_ITEM('',(#372),#379);
#372=PRESENTATION_STYLE_ASSIGNMENT((#373));
#373=SURFACE_STYLE_USAGE(.BOTH.,#374);
#374=SURFACE_SIDE_STYLE('',(#375));
#375=SURFACE_STYLE_FILL_AREA(#376);
#376=FILL_AREA_STYLE('',(#377));
#377=FILL_AREA_STYLE_COLOUR('',#378);
#378=COLOUR_RGB('',0.506983280181885,0.531564235687256,0.550000011920929);
#379=MANIFOLD_SOLID_BREP('',#370);
#380=SHAPE_DEFINITION_REPRESENTATION(#596,#381);
#381=SHAPE_REPRESENTATION('SN 2900',(#382),#591);
#382=AXIS2_PLACEMENT_3D('',#490,#402,#403);
#383=AXIS2_PLACEMENT_3D('',#491,#404,#405);
#384=AXIS2_PLACEMENT_3D('',#508,#414,#415);
#385=AXIS2_PLACEMENT_3D('',#527,#426,#427);
#386=AXIS2_PLACEMENT_3D('',#536,#432,#433);
#387=AXIS2_PLACEMENT_3D('',#542,#437,#438);
#388=AXIS2_PLACEMENT_3D('',#548,#442,#443);
#389=AXIS2_PLACEMENT_3D('',#551,#446,#447);
#390=AXIS2_PLACEMENT_3D('',#552,#448,#449);
#391=AXIS2_PLACEMENT_3D('',#558,#453,#454);
#392=AXIS2_PLACEMENT_3D('',#560,#456,#457);
#393=AXIS2_PLACEMENT_3D('',#567,#462,#463);
#394=AXIS2_PLACEMENT_3D('',#568,#464,#465);
#395=AXIS2_PLACEMENT_3D('',#574,#469,#470);
#396=AXIS2_PLACEMENT_3D('',#576,#472,#473);
#397=AXIS2_PLACEMENT_3D('',#578,#475,#476);
#398=AXIS2_PLACEMENT_3D('',#579,#477,#478);
#399=AXIS2_PLACEMENT_3D('',#585,#482,#483);
#400=AXIS2_PLACEMENT_3D('',#587,#485,#486);
#401=AXIS2_PLACEMENT_3D('',#589,#488,#489);
#402=DIRECTION('',(0.,0.,1.));
#403=DIRECTION('',(1.,0.,0.));
#404=DIRECTION('',(0.104528463267653,-0.994521895368273,0.));
#405=DIRECTION('',(0.994521895368273,0.104528463267653,0.));
#406=DIRECTION('',(0.994521895368273,0.104528463267653,5.57932243502088E-17));
#407=DIRECTION('',(0.,0.,1.));
#408=DIRECTION('',(-0.989132844377854,-0.103962051184498,0.103962051184498));
#409=DIRECTION('',(0.,0.,1.));
#410=DIRECTION('',(-0.989132844377854,-0.103962051184498,-0.103962051184498));
#411=DIRECTION('',(0.,0.,1.));
#412=DIRECTION('',(-0.994521895368273,-0.104528463267653,0.));
#413=DIRECTION('',(0.,0.,-1.));
#414=DIRECTION('',(1.,-6.12303176911189E-17,0.));
#415=DIRECTION('',(6.12303176911189E-17,1.,0.));
#416=DIRECTION('',(-7.00898374132043E-17,-1.,5.33761069531327E-16));
#417=DIRECTION('',(0.,0.,-1.));
#418=DIRECTION('',(6.12303176911189E-17,1.,9.31173045210971E-19));
#419=DIRECTION('',(7.00898374132043E-17,1.,5.33761069531327E-16));
#420=DIRECTION('',(0.,0.,-1.));
#421=DIRECTION('',(-7.00898374132043E-17,-1.,0.));
#422=DIRECTION('',(-6.12303176911189E-17,-1.,9.31173045210971E-19));
#423=DIRECTION('',(0.,0.,-1.));
#424=DIRECTION('',(7.00898374132043E-17,1.,0.));
#425=DIRECTION('',(0.,0.,-1.));
#426=DIRECTION('',(-0.104528463267654,-0.994521895368273,0.));
#427=DIRECTION('',(0.994521895368273,-0.104528463267654,0.));
#428=DIRECTION('',(0.,0.,-1.));
#429=DIRECTION('',(0.989132844377854,-0.103962051184498,0.103962051184498));
#430=DIRECTION('',(0.,0.,-1.));
#431=DIRECTION('',(0.989132844377854,-0.103962051184498,-0.103962051184498));
#432=DIRECTION('',(-0.104528463267653,6.40031101364287E-18,-0.994521895368273));
#433=DIRECTION('',(-0.994521895368273,0.,0.104528463267653));
#434=DIRECTION('',(6.12303176911189E-17,1.,0.));
#435=DIRECTION('',(6.12303176911189E-17,1.,0.));
#436=DIRECTION('',(0.989132844377854,0.103962051184498,-0.103962051184498));
#437=DIRECTION('',(-0.104528463267653,0.994521895368273,0.));
#438=DIRECTION('',(-0.994521895368273,-0.104528463267653,0.));
#439=DIRECTION('',(0.,0.,1.));
#440=DIRECTION('',(0.,0.,1.));
#441=DIRECTION('',(0.989132844377854,0.103962051184498,0.103962051184498));
#442=DIRECTION('',(-0.104528463267653,6.40031101364287E-18,0.994521895368273));
#443=DIRECTION('',(0.994521895368273,0.,0.104528463267653));
#444=DIRECTION('',(-6.12303176911189E-17,-1.,0.));
#445=DIRECTION('',(-6.12303176911189E-17,-1.,0.));
#446=DIRECTION('',(1.,-6.12303176911189E-17,0.));
#447=DIRECTION('',(6.12303176911189E-17,1.,0.));
#448=DIRECTION('',(1.,-6.12303176911189E-17,0.));
#449=DIRECTION('',(6.12303176911189E-17,1.,0.));
#450=DIRECTION('',(6.12303176911189E-17,1.,9.31173045210971E-19));
#451=DIRECTION('',(0.,0.,-1.));
#452=DIRECTION('',(-6.12303176911189E-17,-1.,9.31173045210971E-19));
#453=DIRECTION('',(0.104528463267653,-7.32638299548193E-18,-0.994521895368273));
#454=DIRECTION('',(-0.994521895368273,0.,-0.104528463267653));
#455=DIRECTION('',(-0.989132844377854,0.103962051184498,-0.103962051184498));
#456=DIRECTION('',(0.104528463267654,0.994521895368273,0.));
#457=DIRECTION('',(-0.994521895368273,0.104528463267654,0.));
#458=DIRECTION('',(0.994521895368273,-0.104528463267654,5.57932243502088E-17));
#459=DIRECTION('',(0.,0.,-1.));
#460=DIRECTION('',(-0.994521895368273,0.104528463267654,0.));
#461=DIRECTION('',(-0.989132844377854,0.103962051184498,0.103962051184498));
#462=DIRECTION('',(0.104528463267653,-7.32638299548193E-18,0.994521895368273));
#463=DIRECTION('',(0.994521895368273,0.,-0.104528463267653));
#464=DIRECTION('',(-1.,7.00898374132043E-17,0.));
#465=DIRECTION('',(-7.00898374132043E-17,-1.,0.));
#466=DIRECTION('',(-7.00898374132043E-17,-1.,0.));
#467=DIRECTION('',(0.,0.,-1.));
#468=DIRECTION('',(7.00898374132043E-17,1.,5.33761069531327E-16));
#469=DIRECTION('',(3.74112265809488E-32,5.33761069531327E-16,-1.));
#470=DIRECTION('',(0.,1.,5.33761069531327E-16));
#471=DIRECTION('',(1.,-7.00898374132043E-17,0.));
#472=DIRECTION('',(0.,0.,1.));
#473=DIRECTION('',(1.,0.,0.));
#474=DIRECTION('',(1.,-7.00898374132043E-17,0.));
#475=DIRECTION('',(-7.00898374132043E-17,-1.,0.));
#476=DIRECTION('',(1.,-7.00898374132043E-17,0.));
#477=DIRECTION('',(1.,-7.00898374132043E-17,0.));
#478=DIRECTION('',(7.00898374132043E-17,1.,0.));
#479=DIRECTION('',(-7.00898374132043E-17,-1.,5.33761069531327E-16));
#480=DIRECTION('',(0.,0.,-1.));
#481=DIRECTION('',(7.00898374132043E-17,1.,0.));
#482=DIRECTION('',(3.74112265809488E-32,5.33761069531327E-16,1.));
#483=DIRECTION('',(0.,-1.,5.33761069531327E-16));
#484=DIRECTION('',(1.,-7.00898374132043E-17,0.));
#485=DIRECTION('',(0.,0.,-1.));
#486=DIRECTION('',(-1.,0.,0.));
#487=DIRECTION('',(1.,-7.00898374132043E-17,0.));
#488=DIRECTION('',(-7.00898374132043E-17,-1.,0.));
#489=DIRECTION('',(1.,-7.00898374132043E-17,0.));
#490=CARTESIAN_POINT('',(0.,0.,0.));
#491=CARTESIAN_POINT('',(30.,-148.5,0.));
#492=CARTESIAN_POINT('',(30.,-148.5,57.));
#493=CARTESIAN_POINT('',(30.,-148.5,57.));
#494=CARTESIAN_POINT('',(2.99999999999999,-151.337814352173,57.));
#495=CARTESIAN_POINT('',(30.,-148.5,0.));
#496=CARTESIAN_POINT('',(30.,-148.5,71.));
#497=CARTESIAN_POINT('',(37.3010918370789,-147.732624325859,70.2326243258593));
#498=CARTESIAN_POINT('',(-9.28576914861114E-15,-151.65312705797,74.1531270579703));
#499=CARTESIAN_POINT('',(-1.04083408558608E-14,-151.65312705797,0.));
#500=CARTESIAN_POINT('',(-9.28576914861114E-15,-151.65312705797,-74.1531270579703));
#501=CARTESIAN_POINT('',(45.2705934902285,-146.894995949157,-69.3949959491565));
#502=CARTESIAN_POINT('',(30.,-148.5,-71.));
#503=CARTESIAN_POINT('',(30.,-148.5,0.));
#504=CARTESIAN_POINT('',(30.,-148.5,-57.));
#505=CARTESIAN_POINT('',(30.,-148.5,-57.));
#506=CARTESIAN_POINT('',(2.99999999999998,-151.337814352173,-57.));
#507=CARTESIAN_POINT('',(2.99999999999999,-151.337814352173,0.));
#508=CARTESIAN_POINT('',(30.,-1.83690953073357E-15,0.));
#509=CARTESIAN_POINT('',(30.,151.65312705797,57.));
#510=CARTESIAN_POINT('',(30.,148.5,57.));
#511=CARTESIAN_POINT('',(30.,138.65312705797,57.));
#512=CARTESIAN_POINT('',(30.,148.5,0.));
#513=CARTESIAN_POINT('',(30.,148.5,71.));
#514=CARTESIAN_POINT('',(30.,-2.12095783506609E-31,71.));
#515=CARTESIAN_POINT('',(30.,-151.65312705797,57.));
#516=CARTESIAN_POINT('',(30.,-138.65312705797,57.));
#517=CARTESIAN_POINT('',(30.,-138.65312705797,57.));
#518=CARTESIAN_POINT('',(30.,-138.65312705797,-57.));
#519=CARTESIAN_POINT('',(30.,-138.65312705797,-57.));
#520=CARTESIAN_POINT('',(30.,-2.12095783506609E-31,-71.));
#521=CARTESIAN_POINT('',(30.,148.5,-71.));
#522=CARTESIAN_POINT('',(30.,148.5,0.));
#523=CARTESIAN_POINT('',(30.,148.5,-57.));
#524=CARTESIAN_POINT('',(30.,138.65312705797,-57.));
#525=CARTESIAN_POINT('',(30.,138.65312705797,-57.));
#526=CARTESIAN_POINT('',(30.,138.65312705797,57.));
#527=CARTESIAN_POINT('',(-19.7,-159.5,3.46944695195361E-15));
#528=CARTESIAN_POINT('',(-9.89301631633865E-15,-161.570553434734,0.));
#529=CARTESIAN_POINT('',(-9.89301631633865E-15,-161.570553434734,86.5705534347338));
#530=CARTESIAN_POINT('',(-9.89301631633865E-15,-161.570553434734,-86.5705534347338));
#531=CARTESIAN_POINT('',(-36.1017485635788,-157.776106760205,82.7761067602052));
#532=CARTESIAN_POINT('',(-19.7,-159.5,84.5));
#533=CARTESIAN_POINT('',(-19.7,-159.5,0.));
#534=CARTESIAN_POINT('',(-19.7,-159.5,-84.5));
#535=CARTESIAN_POINT('',(-28.3893276089179,-158.586714866692,-83.5867148666918));
#536=CARTESIAN_POINT('',(-19.7,0.,-84.5));
#537=CARTESIAN_POINT('',(0.,0.,-86.5705534347338));
#538=CARTESIAN_POINT('',(9.89301631633865E-15,161.570553434734,-86.5705534347338));
#539=CARTESIAN_POINT('',(-19.7,0.,-84.5));
#540=CARTESIAN_POINT('',(-19.7,159.5,-84.5));
#541=CARTESIAN_POINT('',(-36.1017485635788,157.776106760205,-82.7761067602052));
#542=CARTESIAN_POINT('',(-19.7,159.5,3.46944695195361E-15));
#543=CARTESIAN_POINT('',(9.89301631633865E-15,161.570553434734,0.));
#544=CARTESIAN_POINT('',(9.89301631633865E-15,161.570553434734,86.5705534347338));
#545=CARTESIAN_POINT('',(-19.7,159.5,0.));
#546=CARTESIAN_POINT('',(-19.7,159.5,84.5));
#547=CARTESIAN_POINT('',(-28.3893276089179,158.586714866692,83.5867148666918));
#548=CARTESIAN_POINT('',(-19.7,0.,84.5));
#549=CARTESIAN_POINT('',(0.,0.,86.5705534347338));
#550=CARTESIAN_POINT('',(-19.7,0.,84.5));
#551=CARTESIAN_POINT('',(-19.7,0.,0.));
#552=CARTESIAN_POINT('',(0.,0.,0.));
#553=CARTESIAN_POINT('',(0.,1.83397342380906E-15,74.1531270579703));
#554=CARTESIAN_POINT('',(9.28576914861114E-15,151.65312705797,74.1531270579703));
#555=CARTESIAN_POINT('',(1.04083408558608E-14,151.65312705797,0.));
#556=CARTESIAN_POINT('',(9.28576914861114E-15,151.65312705797,-74.1531270579703));
#557=CARTESIAN_POINT('',(0.,1.83397342380906E-15,-74.1531270579703));
#558=CARTESIAN_POINT('',(30.,0.,-71.));
#559=CARTESIAN_POINT('',(37.301091837079,147.732624325859,-70.2326243258593));
#560=CARTESIAN_POINT('',(30.,148.5,0.));
#561=CARTESIAN_POINT('',(30.,148.5,57.));
#562=CARTESIAN_POINT('',(3.00000000000001,151.337814352173,57.));
#563=CARTESIAN_POINT('',(3.00000000000001,151.337814352173,0.));
#564=CARTESIAN_POINT('',(3.00000000000001,151.337814352173,-57.));
#565=CARTESIAN_POINT('',(30.,148.5,-57.));
#566=CARTESIAN_POINT('',(45.2705934902285,146.894995949156,69.3949959491565));
#567=CARTESIAN_POINT('',(30.,0.,71.));
#568=CARTESIAN_POINT('',(3.,-2.10269512239613E-16,0.));
#569=CARTESIAN_POINT('',(2.99999999999999,-138.65312705797,-57.));
#570=CARTESIAN_POINT('',(2.99999999999999,-138.65312705797,-57.));
#571=CARTESIAN_POINT('',(2.99999999999999,-138.65312705797,57.));
#572=CARTESIAN_POINT('',(2.99999999999999,-138.65312705797,57.));
#573=CARTESIAN_POINT('',(2.99999999999999,-151.65312705797,57.));
#574=CARTESIAN_POINT('',(2.99999999999999,-151.65312705797,57.));
#575=CARTESIAN_POINT('',(2.99999999999999,-138.65312705797,57.));
#576=CARTESIAN_POINT('',(2.99999999999999,-138.65312705797,-57.));
#577=CARTESIAN_POINT('',(2.99999999999999,-138.65312705797,-57.));
#578=CARTESIAN_POINT('',(2.99999999999999,-138.65312705797,57.));
#579=CARTESIAN_POINT('',(3.,-2.10269512239613E-16,0.));
#580=CARTESIAN_POINT('',(3.00000000000001,151.65312705797,57.));
#581=CARTESIAN_POINT('',(3.00000000000001,138.65312705797,57.));
#582=CARTESIAN_POINT('',(3.00000000000001,138.65312705797,57.));
#583=CARTESIAN_POINT('',(3.00000000000001,138.65312705797,-57.));
#584=CARTESIAN_POINT('',(3.00000000000001,138.65312705797,-57.));
#585=CARTESIAN_POINT('',(3.00000000000001,151.65312705797,57.));
#586=CARTESIAN_POINT('',(3.00000000000001,138.65312705797,57.));
#587=CARTESIAN_POINT('',(3.00000000000001,138.65312705797,-57.));
#588=CARTESIAN_POINT('',(3.00000000000001,138.65312705797,-57.));
#589=CARTESIAN_POINT('',(3.00000000000001,138.65312705797,57.));
#590=MECHANICAL_DESIGN_GEOMETRIC_PRESENTATION_REPRESENTATION('',(#371),
#591);
#591=(
GEOMETRIC_REPRESENTATION_CONTEXT(3)
GLOBAL_UNCERTAINTY_ASSIGNED_CONTEXT((#592))
GLOBAL_UNIT_ASSIGNED_CONTEXT((#595,#594,#593))
REPRESENTATION_CONTEXT('SN 2900','TOP_LEVEL_ASSEMBLY_PART')
);
#592=UNCERTAINTY_MEASURE_WITH_UNIT(LENGTH_MEASURE(0.005),#595,
'DISTANCE_ACCURACY_VALUE','Maximum Tolerance applied to model');
#593=(
NAMED_UNIT(*)
SI_UNIT($,.STERADIAN.)
SOLID_ANGLE_UNIT()
);
#594=(
NAMED_UNIT(*)
PLANE_ANGLE_UNIT()
SI_UNIT($,.RADIAN.)
);
#595=(
LENGTH_UNIT()
NAMED_UNIT(*)
SI_UNIT(.MILLI.,.METRE.)
);
#596=PRODUCT_DEFINITION_SHAPE('','',#597);
#597=PRODUCT_DEFINITION('','',#599,#598);
#598=PRODUCT_DEFINITION_CONTEXT('',#605,'design');
#599=PRODUCT_DEFINITION_FORMATION_WITH_SPECIFIED_SOURCE('','',#601,
 .NOT_KNOWN.);
#600=PRODUCT_RELATED_PRODUCT_CATEGORY('','',(#601));
#601=PRODUCT('SN 2900','SN 2900','SN 2900',(#603));
#602=PRODUCT_CATEGORY('','');
#603=PRODUCT_CONTEXT('',#605,'mechanical');
#604=APPLICATION_PROTOCOL_DEFINITION('international standard',
'automotive_design',2010,#605);
#605=APPLICATION_CONTEXT(
'core data for automotive mechanical design processes');
ENDSEC;
END-ISO-10303-21;
