ISO-10303-21;
HEADER;
/* Generated by software containing ST-Developer
 * from STEP Tools, Inc. (www.steptools.com) 
 */
/* OPTION: strings as raw bytes, not using required /X/ escapes */

FILE_DESCRIPTION(
/* description */ ('Unknown'),
/* implementation_level */ '2;1');

FILE_NAME(
/* name */ 'SN 6114 O LED 24V',
/* time_stamp */ '2020-08-27T11:15:42+02:00',
/* author */ ('Unknown'),
/* organization */ ('Unknown'),
/* preprocessor_version */ 'ST-DEVELOPER v16.7',
/* originating_system */ 'Solid Edge',
/* authorisation */ 'Unknown');

FILE_SCHEMA (('AUTOMOTIVE_DESIGN {1 0 10303 214 3 1 1}'));
ENDSEC;

DATA;
#10=PROPERTY_DEFINITION_REPRESENTATION(#14,#12);
#11=PROPERTY_DEFINITION_REPRESENTATION(#15,#13);
#12=REPRESENTATION('',(#16),#469);
#13=REPRESENTATION('',(#17),#469);
#14=PROPERTY_DEFINITION('pmi validation property','',#474);
#15=PROPERTY_DEFINITION('pmi validation property','',#474);
#16=VALUE_REPRESENTATION_ITEM('number of annotations',COUNT_MEASURE(0.));
#17=VALUE_REPRESENTATION_ITEM('number of views',COUNT_MEASURE(0.));
#18=SHAPE_REPRESENTATION_RELATIONSHIP('','',#303,#19);
#19=ADVANCED_BREP_SHAPE_REPRESENTATION('',(#301),#469);
#20=ORIENTED_EDGE('',*,*,#92,.T.);
#21=ORIENTED_EDGE('',*,*,#93,.F.);
#22=ORIENTED_EDGE('',*,*,#94,.F.);
#23=ORIENTED_EDGE('',*,*,#95,.T.);
#24=ORIENTED_EDGE('',*,*,#96,.T.);
#25=ORIENTED_EDGE('',*,*,#97,.F.);
#26=ORIENTED_EDGE('',*,*,#98,.F.);
#27=ORIENTED_EDGE('',*,*,#93,.T.);
#28=ORIENTED_EDGE('',*,*,#99,.T.);
#29=ORIENTED_EDGE('',*,*,#100,.F.);
#30=ORIENTED_EDGE('',*,*,#101,.F.);
#31=ORIENTED_EDGE('',*,*,#97,.T.);
#32=ORIENTED_EDGE('',*,*,#94,.T.);
#33=ORIENTED_EDGE('',*,*,#98,.T.);
#34=ORIENTED_EDGE('',*,*,#101,.T.);
#35=ORIENTED_EDGE('',*,*,#102,.T.);
#36=ORIENTED_EDGE('',*,*,#92,.F.);
#37=ORIENTED_EDGE('',*,*,#103,.F.);
#38=ORIENTED_EDGE('',*,*,#99,.F.);
#39=ORIENTED_EDGE('',*,*,#96,.F.);
#40=ORIENTED_EDGE('',*,*,#104,.F.);
#41=ORIENTED_EDGE('',*,*,#105,.F.);
#42=ORIENTED_EDGE('',*,*,#106,.F.);
#43=ORIENTED_EDGE('',*,*,#107,.F.);
#44=ORIENTED_EDGE('',*,*,#100,.T.);
#45=ORIENTED_EDGE('',*,*,#103,.T.);
#46=ORIENTED_EDGE('',*,*,#95,.F.);
#47=ORIENTED_EDGE('',*,*,#102,.F.);
#48=ORIENTED_EDGE('',*,*,#104,.T.);
#49=ORIENTED_EDGE('',*,*,#108,.F.);
#50=ORIENTED_EDGE('',*,*,#109,.F.);
#51=ORIENTED_EDGE('',*,*,#110,.T.);
#52=ORIENTED_EDGE('',*,*,#107,.T.);
#53=ORIENTED_EDGE('',*,*,#111,.F.);
#54=ORIENTED_EDGE('',*,*,#112,.F.);
#55=ORIENTED_EDGE('',*,*,#108,.T.);
#56=ORIENTED_EDGE('',*,*,#106,.T.);
#57=ORIENTED_EDGE('',*,*,#113,.F.);
#58=ORIENTED_EDGE('',*,*,#114,.F.);
#59=ORIENTED_EDGE('',*,*,#111,.T.);
#60=ORIENTED_EDGE('',*,*,#105,.T.);
#61=ORIENTED_EDGE('',*,*,#110,.F.);
#62=ORIENTED_EDGE('',*,*,#115,.F.);
#63=ORIENTED_EDGE('',*,*,#113,.T.);
#64=ORIENTED_EDGE('',*,*,#116,.F.);
#65=ORIENTED_EDGE('',*,*,#117,.F.);
#66=ORIENTED_EDGE('',*,*,#118,.F.);
#67=ORIENTED_EDGE('',*,*,#119,.F.);
#68=ORIENTED_EDGE('',*,*,#109,.T.);
#69=ORIENTED_EDGE('',*,*,#112,.T.);
#70=ORIENTED_EDGE('',*,*,#114,.T.);
#71=ORIENTED_EDGE('',*,*,#115,.T.);
#72=ORIENTED_EDGE('',*,*,#116,.T.);
#73=ORIENTED_EDGE('',*,*,#120,.F.);
#74=ORIENTED_EDGE('',*,*,#121,.F.);
#75=ORIENTED_EDGE('',*,*,#122,.T.);
#76=ORIENTED_EDGE('',*,*,#119,.T.);
#77=ORIENTED_EDGE('',*,*,#123,.F.);
#78=ORIENTED_EDGE('',*,*,#124,.F.);
#79=ORIENTED_EDGE('',*,*,#120,.T.);
#80=ORIENTED_EDGE('',*,*,#118,.T.);
#81=ORIENTED_EDGE('',*,*,#125,.F.);
#82=ORIENTED_EDGE('',*,*,#126,.F.);
#83=ORIENTED_EDGE('',*,*,#123,.T.);
#84=ORIENTED_EDGE('',*,*,#117,.T.);
#85=ORIENTED_EDGE('',*,*,#122,.F.);
#86=ORIENTED_EDGE('',*,*,#127,.F.);
#87=ORIENTED_EDGE('',*,*,#125,.T.);
#88=ORIENTED_EDGE('',*,*,#121,.T.);
#89=ORIENTED_EDGE('',*,*,#124,.T.);
#90=ORIENTED_EDGE('',*,*,#126,.T.);
#91=ORIENTED_EDGE('',*,*,#127,.T.);
#92=EDGE_CURVE('',#128,#129,#152,.F.);
#93=EDGE_CURVE('',#130,#129,#153,.T.);
#94=EDGE_CURVE('',#131,#130,#154,.T.);
#95=EDGE_CURVE('',#131,#128,#155,.T.);
#96=EDGE_CURVE('',#129,#132,#156,.F.);
#97=EDGE_CURVE('',#133,#132,#157,.T.);
#98=EDGE_CURVE('',#130,#133,#158,.T.);
#99=EDGE_CURVE('',#132,#134,#159,.F.);
#100=EDGE_CURVE('',#135,#134,#160,.T.);
#101=EDGE_CURVE('',#133,#135,#161,.T.);
#102=EDGE_CURVE('',#135,#131,#162,.T.);
#103=EDGE_CURVE('',#134,#128,#163,.F.);
#104=EDGE_CURVE('',#136,#137,#164,.T.);
#105=EDGE_CURVE('',#138,#136,#165,.T.);
#106=EDGE_CURVE('',#139,#138,#166,.T.);
#107=EDGE_CURVE('',#137,#139,#167,.T.);
#108=EDGE_CURVE('',#140,#137,#168,.T.);
#109=EDGE_CURVE('',#141,#140,#169,.T.);
#110=EDGE_CURVE('',#141,#136,#170,.T.);
#111=EDGE_CURVE('',#142,#139,#171,.T.);
#112=EDGE_CURVE('',#140,#142,#172,.T.);
#113=EDGE_CURVE('',#143,#138,#173,.T.);
#114=EDGE_CURVE('',#142,#143,#174,.T.);
#115=EDGE_CURVE('',#143,#141,#175,.T.);
#116=EDGE_CURVE('',#144,#145,#176,.T.);
#117=EDGE_CURVE('',#146,#144,#177,.T.);
#118=EDGE_CURVE('',#147,#146,#178,.T.);
#119=EDGE_CURVE('',#145,#147,#179,.T.);
#120=EDGE_CURVE('',#148,#145,#180,.T.);
#121=EDGE_CURVE('',#149,#148,#181,.T.);
#122=EDGE_CURVE('',#149,#144,#182,.T.);
#123=EDGE_CURVE('',#150,#147,#183,.T.);
#124=EDGE_CURVE('',#148,#150,#184,.T.);
#125=EDGE_CURVE('',#151,#146,#185,.T.);
#126=EDGE_CURVE('',#150,#151,#186,.T.);
#127=EDGE_CURVE('',#151,#149,#187,.T.);
#128=VERTEX_POINT('',#394);
#129=VERTEX_POINT('',#395);
#130=VERTEX_POINT('',#397);
#131=VERTEX_POINT('',#399);
#132=VERTEX_POINT('',#403);
#133=VERTEX_POINT('',#405);
#134=VERTEX_POINT('',#409);
#135=VERTEX_POINT('',#411);
#136=VERTEX_POINT('',#419);
#137=VERTEX_POINT('',#420);
#138=VERTEX_POINT('',#422);
#139=VERTEX_POINT('',#424);
#140=VERTEX_POINT('',#428);
#141=VERTEX_POINT('',#430);
#142=VERTEX_POINT('',#434);
#143=VERTEX_POINT('',#438);
#144=VERTEX_POINT('',#444);
#145=VERTEX_POINT('',#445);
#146=VERTEX_POINT('',#447);
#147=VERTEX_POINT('',#449);
#148=VERTEX_POINT('',#453);
#149=VERTEX_POINT('',#455);
#150=VERTEX_POINT('',#459);
#151=VERTEX_POINT('',#463);
#152=LINE('',#393,#188);
#153=LINE('',#396,#189);
#154=LINE('',#398,#190);
#155=LINE('',#400,#191);
#156=LINE('',#402,#192);
#157=LINE('',#404,#193);
#158=LINE('',#406,#194);
#159=LINE('',#408,#195);
#160=LINE('',#410,#196);
#161=LINE('',#412,#197);
#162=LINE('',#414,#198);
#163=LINE('',#416,#199);
#164=LINE('',#418,#200);
#165=LINE('',#421,#201);
#166=LINE('',#423,#202);
#167=LINE('',#425,#203);
#168=LINE('',#427,#204);
#169=LINE('',#429,#205);
#170=LINE('',#431,#206);
#171=LINE('',#433,#207);
#172=LINE('',#435,#208);
#173=LINE('',#437,#209);
#174=LINE('',#439,#210);
#175=LINE('',#441,#211);
#176=LINE('',#443,#212);
#177=LINE('',#446,#213);
#178=LINE('',#448,#214);
#179=LINE('',#450,#215);
#180=LINE('',#452,#216);
#181=LINE('',#454,#217);
#182=LINE('',#456,#218);
#183=LINE('',#458,#219);
#184=LINE('',#460,#220);
#185=LINE('',#462,#221);
#186=LINE('',#464,#222);
#187=LINE('',#466,#223);
#188=VECTOR('',#325,1000.);
#189=VECTOR('',#326,1000.);
#190=VECTOR('',#327,1000.);
#191=VECTOR('',#328,1000.);
#192=VECTOR('',#331,1000.);
#193=VECTOR('',#332,1000.);
#194=VECTOR('',#333,1000.);
#195=VECTOR('',#336,1000.);
#196=VECTOR('',#337,1000.);
#197=VECTOR('',#338,1000.);
#198=VECTOR('',#341,1000.);
#199=VECTOR('',#344,1000.);
#200=VECTOR('',#347,1000.);
#201=VECTOR('',#348,1000.);
#202=VECTOR('',#349,1000.);
#203=VECTOR('',#350,1000.);
#204=VECTOR('',#353,1000.);
#205=VECTOR('',#354,1000.);
#206=VECTOR('',#355,1000.);
#207=VECTOR('',#358,1000.);
#208=VECTOR('',#359,1000.);
#209=VECTOR('',#362,1000.);
#210=VECTOR('',#363,1000.);
#211=VECTOR('',#366,1000.);
#212=VECTOR('',#369,1000.);
#213=VECTOR('',#370,1000.);
#214=VECTOR('',#371,1000.);
#215=VECTOR('',#372,1000.);
#216=VECTOR('',#375,1000.);
#217=VECTOR('',#376,1000.);
#218=VECTOR('',#377,1000.);
#219=VECTOR('',#380,1000.);
#220=VECTOR('',#381,1000.);
#221=VECTOR('',#384,1000.);
#222=VECTOR('',#385,1000.);
#223=VECTOR('',#388,1000.);
#224=EDGE_LOOP('',(#20,#21,#22,#23));
#225=EDGE_LOOP('',(#24,#25,#26,#27));
#226=EDGE_LOOP('',(#28,#29,#30,#31));
#227=EDGE_LOOP('',(#32,#33,#34,#35));
#228=EDGE_LOOP('',(#36,#37,#38,#39));
#229=EDGE_LOOP('',(#40,#41,#42,#43));
#230=EDGE_LOOP('',(#44,#45,#46,#47));
#231=EDGE_LOOP('',(#48,#49,#50,#51));
#232=EDGE_LOOP('',(#52,#53,#54,#55));
#233=EDGE_LOOP('',(#56,#57,#58,#59));
#234=EDGE_LOOP('',(#60,#61,#62,#63));
#235=EDGE_LOOP('',(#64,#65,#66,#67));
#236=EDGE_LOOP('',(#68,#69,#70,#71));
#237=EDGE_LOOP('',(#72,#73,#74,#75));
#238=EDGE_LOOP('',(#76,#77,#78,#79));
#239=EDGE_LOOP('',(#80,#81,#82,#83));
#240=EDGE_LOOP('',(#84,#85,#86,#87));
#241=EDGE_LOOP('',(#88,#89,#90,#91));
#242=FACE_BOUND('',#224,.T.);
#243=FACE_BOUND('',#225,.T.);
#244=FACE_BOUND('',#226,.T.);
#245=FACE_BOUND('',#227,.T.);
#246=FACE_BOUND('',#228,.T.);
#247=FACE_BOUND('',#229,.T.);
#248=FACE_BOUND('',#230,.T.);
#249=FACE_BOUND('',#231,.T.);
#250=FACE_BOUND('',#232,.T.);
#251=FACE_BOUND('',#233,.T.);
#252=FACE_BOUND('',#234,.T.);
#253=FACE_BOUND('',#235,.T.);
#254=FACE_BOUND('',#236,.T.);
#255=FACE_BOUND('',#237,.T.);
#256=FACE_BOUND('',#238,.T.);
#257=FACE_BOUND('',#239,.T.);
#258=FACE_BOUND('',#240,.T.);
#259=FACE_BOUND('',#241,.T.);
#260=PLANE('',#305);
#261=PLANE('',#306);
#262=PLANE('',#307);
#263=PLANE('',#308);
#264=PLANE('',#309);
#265=PLANE('',#310);
#266=PLANE('',#311);
#267=PLANE('',#312);
#268=PLANE('',#313);
#269=PLANE('',#314);
#270=PLANE('',#315);
#271=PLANE('',#316);
#272=PLANE('',#317);
#273=PLANE('',#318);
#274=PLANE('',#319);
#275=PLANE('',#320);
#276=ADVANCED_FACE('',(#242),#260,.F.);
#277=ADVANCED_FACE('',(#243),#261,.F.);
#278=ADVANCED_FACE('',(#244),#262,.F.);
#279=ADVANCED_FACE('',(#245),#263,.T.);
#280=ADVANCED_FACE('',(#246),#264,.T.);
#281=ADVANCED_FACE('',(#247,#248),#265,.F.);
#282=ADVANCED_FACE('',(#249),#266,.F.);
#283=ADVANCED_FACE('',(#250),#267,.F.);
#284=ADVANCED_FACE('',(#251),#268,.F.);
#285=ADVANCED_FACE('',(#252),#269,.F.);
#286=ADVANCED_FACE('',(#253,#254),#270,.T.);
#287=ADVANCED_FACE('',(#255),#271,.F.);
#288=ADVANCED_FACE('',(#256),#272,.F.);
#289=ADVANCED_FACE('',(#257),#273,.F.);
#290=ADVANCED_FACE('',(#258),#274,.F.);
#291=ADVANCED_FACE('',(#259),#275,.T.);
#292=CLOSED_SHELL('',(#276,#277,#278,#279,#280,#281,#282,#283,#284,#285,
#286,#287,#288,#289,#290,#291));
#293=STYLED_ITEM('',(#294),#301);
#294=PRESENTATION_STYLE_ASSIGNMENT((#295));
#295=SURFACE_STYLE_USAGE(.BOTH.,#296);
#296=SURFACE_SIDE_STYLE('',(#297));
#297=SURFACE_STYLE_FILL_AREA(#298);
#298=FILL_AREA_STYLE('',(#299));
#299=FILL_AREA_STYLE_COLOUR('',#300);
#300=COLOUR_RGB('',0.645180702209473,0.678915679454803,0.699999988079071);
#301=MANIFOLD_SOLID_BREP('',#292);
#302=SHAPE_DEFINITION_REPRESENTATION(#474,#303);
#303=SHAPE_REPRESENTATION('SN 6114 O LED 24V',(#304),#469);
#304=AXIS2_PLACEMENT_3D('',#391,#321,#322);
#305=AXIS2_PLACEMENT_3D('',#392,#323,#324);
#306=AXIS2_PLACEMENT_3D('',#401,#329,#330);
#307=AXIS2_PLACEMENT_3D('',#407,#334,#335);
#308=AXIS2_PLACEMENT_3D('',#413,#339,#340);
#309=AXIS2_PLACEMENT_3D('',#415,#342,#343);
#310=AXIS2_PLACEMENT_3D('',#417,#345,#346);
#311=AXIS2_PLACEMENT_3D('',#426,#351,#352);
#312=AXIS2_PLACEMENT_3D('',#432,#356,#357);
#313=AXIS2_PLACEMENT_3D('',#436,#360,#361);
#314=AXIS2_PLACEMENT_3D('',#440,#364,#365);
#315=AXIS2_PLACEMENT_3D('',#442,#367,#368);
#316=AXIS2_PLACEMENT_3D('',#451,#373,#374);
#317=AXIS2_PLACEMENT_3D('',#457,#378,#379);
#318=AXIS2_PLACEMENT_3D('',#461,#382,#383);
#319=AXIS2_PLACEMENT_3D('',#465,#386,#387);
#320=AXIS2_PLACEMENT_3D('',#467,#389,#390);
#321=DIRECTION('',(0.,0.,1.));
#322=DIRECTION('',(1.,0.,0.));
#323=DIRECTION('',(0.994505452921406,0.,-0.104684784518043));
#324=DIRECTION('',(-0.104684784518043,0.,-0.994505452921406));
#325=DIRECTION('',(-0.10311142548055,-0.172722600149547,-0.979558542065225));
#326=DIRECTION('',(0.,-1.,0.));
#327=DIRECTION('',(0.10311142548055,-0.172722600149547,0.979558542065225));
#328=DIRECTION('',(0.,-1.,0.));
#329=DIRECTION('',(0.,0.,-1.));
#330=DIRECTION('',(-1.,0.,0.));
#331=DIRECTION('',(-1.,0.,0.));
#332=DIRECTION('',(0.,-1.,0.));
#333=DIRECTION('',(1.,0.,0.));
#334=DIRECTION('',(-0.994505452921406,0.,-0.104684784518043));
#335=DIRECTION('',(-0.104684784518043,0.,0.994505452921406));
#336=DIRECTION('',(-0.10311142548055,0.172722600149547,0.979558542065225));
#337=DIRECTION('',(0.,-1.,0.));
#338=DIRECTION('',(0.10311142548055,0.172722600149547,-0.979558542065225));
#339=DIRECTION('',(0.,0.984807753012208,0.17364817766693));
#340=DIRECTION('',(0.,-0.17364817766693,0.984807753012208));
#341=DIRECTION('',(-1.,3.23907408791908E-17,-1.83697019872103E-16));
#342=DIRECTION('',(0.,-0.984807753012208,0.17364817766693));
#343=DIRECTION('',(0.,-0.17364817766693,-0.984807753012208));
#344=DIRECTION('',(1.,3.23907408791908E-17,1.83697019872103E-16));
#345=DIRECTION('',(1.83697019872103E-16,0.,-1.));
#346=DIRECTION('',(-1.,0.,-1.83697019872103E-16));
#347=DIRECTION('',(1.,0.,1.83697019872103E-16));
#348=DIRECTION('',(0.,1.,0.));
#349=DIRECTION('',(-1.,0.,-1.83697019872103E-16));
#350=DIRECTION('',(0.,-1.,0.));
#351=DIRECTION('',(0.,-1.,0.));
#352=DIRECTION('',(0.,0.,-1.));
#353=DIRECTION('',(-1.83697019872103E-16,0.,1.));
#354=DIRECTION('',(1.,0.,1.83697019872103E-16));
#355=DIRECTION('',(-1.83697019872103E-16,0.,1.));
#356=DIRECTION('',(-1.,0.,-1.83697019872103E-16));
#357=DIRECTION('',(-1.83697019872103E-16,0.,1.));
#358=DIRECTION('',(-1.83697019872103E-16,0.,1.));
#359=DIRECTION('',(0.,-1.,0.));
#360=DIRECTION('',(0.,1.,0.));
#361=DIRECTION('',(0.,0.,1.));
#362=DIRECTION('',(-1.83697019872103E-16,0.,1.));
#363=DIRECTION('',(-1.,0.,-1.83697019872103E-16));
#364=DIRECTION('',(1.,0.,1.83697019872103E-16));
#365=DIRECTION('',(1.83697019872103E-16,0.,-1.));
#366=DIRECTION('',(0.,1.,0.));
#367=DIRECTION('',(1.83697019872103E-16,0.,-1.));
#368=DIRECTION('',(-1.,0.,-1.83697019872103E-16));
#369=DIRECTION('',(1.,0.,1.83697019872103E-16));
#370=DIRECTION('',(0.,1.,0.));
#371=DIRECTION('',(-1.,0.,-1.83697019872103E-16));
#372=DIRECTION('',(0.,-1.,0.));
#373=DIRECTION('',(0.,1.,0.));
#374=DIRECTION('',(0.,0.,1.));
#375=DIRECTION('',(1.83697019872103E-16,0.,-1.));
#376=DIRECTION('',(1.,0.,1.83697019872103E-16));
#377=DIRECTION('',(1.83697019872103E-16,0.,-1.));
#378=DIRECTION('',(1.,0.,1.83697019872103E-16));
#379=DIRECTION('',(1.83697019872103E-16,0.,-1.));
#380=DIRECTION('',(1.83697019872103E-16,0.,-1.));
#381=DIRECTION('',(0.,-1.,0.));
#382=DIRECTION('',(0.,-1.,0.));
#383=DIRECTION('',(0.,0.,-1.));
#384=DIRECTION('',(1.83697019872103E-16,0.,-1.));
#385=DIRECTION('',(-1.,0.,-1.83697019872103E-16));
#386=DIRECTION('',(-1.,0.,-1.83697019872103E-16));
#387=DIRECTION('',(-1.83697019872103E-16,0.,1.));
#388=DIRECTION('',(0.,1.,0.));
#389=DIRECTION('',(1.83697019872103E-16,0.,-1.));
#390=DIRECTION('',(-1.,0.,-1.83697019872103E-16));
#391=CARTESIAN_POINT('',(0.,0.,0.));
#392=CARTESIAN_POINT('',(-29.,216.,-5.32721357629099E-15));
#393=CARTESIAN_POINT('',(-25.0039450379365,-1.68171467469758,37.9625221396032));
#394=CARTESIAN_POINT('',(-29.,-8.37553158365206,-5.32721357629099E-15));
#395=CARTESIAN_POINT('',(-24.,0.,47.5));
#396=CARTESIAN_POINT('',(-24.,216.,47.5));
#397=CARTESIAN_POINT('',(-24.,216.,47.5));
#398=CARTESIAN_POINT('',(-28.8508345169879,224.12566354082,1.41707208861496));
#399=CARTESIAN_POINT('',(-29.,224.375531583652,-5.32721357629099E-15));
#400=CARTESIAN_POINT('',(-29.,216.,-5.32721357629099E-15));
#401=CARTESIAN_POINT('',(-24.,216.,47.5));
#402=CARTESIAN_POINT('',(-24.,0.,47.5));
#403=CARTESIAN_POINT('',(24.,0.,47.5));
#404=CARTESIAN_POINT('',(24.,216.,47.5));
#405=CARTESIAN_POINT('',(24.,216.,47.5));
#406=CARTESIAN_POINT('',(-24.,216.,47.5));
#407=CARTESIAN_POINT('',(24.,216.,47.5));
#408=CARTESIAN_POINT('',(20.1531105209486,6.44394886612282,84.0454500509883));
#409=CARTESIAN_POINT('',(29.,-8.37553158365206,6.93889390390723E-15));
#410=CARTESIAN_POINT('',(29.,216.,6.93889390390723E-15));
#411=CARTESIAN_POINT('',(29.,224.375531583652,6.93889390390723E-15));
#412=CARTESIAN_POINT('',(24.,216.,47.5));
#413=CARTESIAN_POINT('',(-6.93889390390723E-15,216.,47.5));
#414=CARTESIAN_POINT('',(-29.,224.375531583652,-5.32721357629099E-15));
#415=CARTESIAN_POINT('',(-6.93889390390723E-15,0.,47.5));
#416=CARTESIAN_POINT('',(-29.,-8.37553158365206,-5.32721357629098E-15));
#417=CARTESIAN_POINT('',(0.,0.,0.));
#418=CARTESIAN_POINT('',(-34.5,237.,-6.33754718558755E-15));
#419=CARTESIAN_POINT('',(-34.5,237.,-6.33754718558755E-15));
#420=CARTESIAN_POINT('',(34.5,237.,6.33754718558755E-15));
#421=CARTESIAN_POINT('',(-34.5,-21.,-6.33754718558755E-15));
#422=CARTESIAN_POINT('',(-34.5,-21.,-6.33754718558755E-15));
#423=CARTESIAN_POINT('',(34.5,-21.,6.33754718558755E-15));
#424=CARTESIAN_POINT('',(34.5,-21.,6.33754718558755E-15));
#425=CARTESIAN_POINT('',(34.5,237.,6.33754718558755E-15));
#426=CARTESIAN_POINT('',(-34.5,237.,-7.50000000000001));
#427=CARTESIAN_POINT('',(34.5,237.,-7.49999999999999));
#428=CARTESIAN_POINT('',(34.5,237.,-7.49999999999999));
#429=CARTESIAN_POINT('',(-34.5,237.,-7.50000000000001));
#430=CARTESIAN_POINT('',(-34.5,237.,-7.50000000000001));
#431=CARTESIAN_POINT('',(-34.5,237.,-7.50000000000001));
#432=CARTESIAN_POINT('',(34.5,237.,-7.49999999999999));
#433=CARTESIAN_POINT('',(34.5,-21.,-7.49999999999999));
#434=CARTESIAN_POINT('',(34.5,-21.,-7.49999999999999));
#435=CARTESIAN_POINT('',(34.5,237.,-7.49999999999999));
#436=CARTESIAN_POINT('',(34.5,-21.,-7.49999999999999));
#437=CARTESIAN_POINT('',(-34.5,-21.,-7.50000000000001));
#438=CARTESIAN_POINT('',(-34.5,-21.,-7.50000000000001));
#439=CARTESIAN_POINT('',(34.5,-21.,-7.49999999999999));
#440=CARTESIAN_POINT('',(-34.5,-21.,-7.50000000000001));
#441=CARTESIAN_POINT('',(-34.5,-21.,-7.50000000000001));
#442=CARTESIAN_POINT('',(1.37772764904077E-15,0.,-7.5));
#443=CARTESIAN_POINT('',(-20.5,216.,-7.5));
#444=CARTESIAN_POINT('',(-20.5,216.,-7.5));
#445=CARTESIAN_POINT('',(20.5,216.,-7.5));
#446=CARTESIAN_POINT('',(-20.5,0.,-7.5));
#447=CARTESIAN_POINT('',(-20.5,0.,-7.5));
#448=CARTESIAN_POINT('',(20.5,0.,-7.5));
#449=CARTESIAN_POINT('',(20.5,0.,-7.5));
#450=CARTESIAN_POINT('',(20.5,216.,-7.5));
#451=CARTESIAN_POINT('',(-20.5,216.,-5.5));
#452=CARTESIAN_POINT('',(20.5,216.,-5.5));
#453=CARTESIAN_POINT('',(20.5,216.,-5.5));
#454=CARTESIAN_POINT('',(-20.5,216.,-5.5));
#455=CARTESIAN_POINT('',(-20.5,216.,-5.5));
#456=CARTESIAN_POINT('',(-20.5,216.,-5.5));
#457=CARTESIAN_POINT('',(20.5,216.,-5.5));
#458=CARTESIAN_POINT('',(20.5,0.,-5.5));
#459=CARTESIAN_POINT('',(20.5,0.,-5.5));
#460=CARTESIAN_POINT('',(20.5,216.,-5.5));
#461=CARTESIAN_POINT('',(20.5,0.,-5.5));
#462=CARTESIAN_POINT('',(-20.5,0.,-5.5));
#463=CARTESIAN_POINT('',(-20.5,0.,-5.5));
#464=CARTESIAN_POINT('',(20.5,0.,-5.5));
#465=CARTESIAN_POINT('',(-20.5,0.,-5.5));
#466=CARTESIAN_POINT('',(-20.5,0.,-5.5));
#467=CARTESIAN_POINT('',(1.01033360929657E-15,0.,-5.5));
#468=MECHANICAL_DESIGN_GEOMETRIC_PRESENTATION_REPRESENTATION('',(#293),
#469);
#469=(
GEOMETRIC_REPRESENTATION_CONTEXT(3)
GLOBAL_UNCERTAINTY_ASSIGNED_CONTEXT((#470))
GLOBAL_UNIT_ASSIGNED_CONTEXT((#473,#472,#471))
REPRESENTATION_CONTEXT('SN 6114 O LED 24V','TOP_LEVEL_ASSEMBLY_PART')
);
#470=UNCERTAINTY_MEASURE_WITH_UNIT(LENGTH_MEASURE(0.005),#473,
'DISTANCE_ACCURACY_VALUE','Maximum Tolerance applied to model');
#471=(
NAMED_UNIT(*)
SI_UNIT($,.STERADIAN.)
SOLID_ANGLE_UNIT()
);
#472=(
NAMED_UNIT(*)
PLANE_ANGLE_UNIT()
SI_UNIT($,.RADIAN.)
);
#473=(
LENGTH_UNIT()
NAMED_UNIT(*)
SI_UNIT(.MILLI.,.METRE.)
);
#474=PRODUCT_DEFINITION_SHAPE('','',#475);
#475=PRODUCT_DEFINITION('','',#477,#476);
#476=PRODUCT_DEFINITION_CONTEXT('',#483,'design');
#477=PRODUCT_DEFINITION_FORMATION_WITH_SPECIFIED_SOURCE('','',#479,
 .NOT_KNOWN.);
#478=PRODUCT_RELATED_PRODUCT_CATEGORY('','',(#479));
#479=PRODUCT('SN 6114 O LED 24V','SN 6114 O LED 24V',
'SN 6114 O LED 24V',(#481));
#480=PRODUCT_CATEGORY('','');
#481=PRODUCT_CONTEXT('',#483,'mechanical');
#482=APPLICATION_PROTOCOL_DEFINITION('international standard',
'automotive_design',2010,#483);
#483=APPLICATION_CONTEXT(
'core data for automotive mechanical design processes');
ENDSEC;
END-ISO-10303-21;
