ISO-10303-21;
HEADER;
/* Generated by software containing ST-Developer
 * from STEP Tools, Inc. (www.steptools.com) 
 */
/* OPTION: strings as raw bytes, not using required /X/ escapes */

FILE_DESCRIPTION(
/* description */ ('Unknown'),
/* implementation_level */ '2;1');

FILE_NAME(
/* name */ 'SN 8030.2 E',
/* time_stamp */ '2021-03-04T13:50:24+01:00',
/* author */ ('Unknown'),
/* organization */ ('Unknown'),
/* preprocessor_version */ 'ST-DEVELOPER v16.7',
/* originating_system */ 'Solid Edge',
/* authorisation */ 'Unknown');

FILE_SCHEMA (('AUTOMOTIVE_DESIGN {1 0 10303 214 3 1 1}'));
ENDSEC;

DATA;
#10=PROPERTY_DEFINITION_REPRESENTATION(#14,#12);
#11=PROPERTY_DEFINITION_REPRESENTATION(#15,#13);
#12=REPRESENTATION('',(#16),#751);
#13=REPRESENTATION('',(#17),#751);
#14=PROPERTY_DEFINITION('pmi validation property','',#756);
#15=PROPERTY_DEFINITION('pmi validation property','',#756);
#16=VALUE_REPRESENTATION_ITEM('number of annotations',COUNT_MEASURE(0.));
#17=VALUE_REPRESENTATION_ITEM('number of views',COUNT_MEASURE(0.));
#18=SHAPE_REPRESENTATION_RELATIONSHIP('','',#471,#19);
#19=ADVANCED_BREP_SHAPE_REPRESENTATION('',(#469),#751);
#20=ELLIPSE('',#499,5.65685424949238,4.);
#21=ELLIPSE('',#500,5.65685424949238,4.);
#22=ELLIPSE('',#502,5.65685424949238,4.);
#23=ELLIPSE('',#504,5.65685424949238,4.);
#24=CYLINDRICAL_SURFACE('',#490,12.5);
#25=CYLINDRICAL_SURFACE('',#498,4.);
#26=CYLINDRICAL_SURFACE('',#501,4.);
#27=CYLINDRICAL_SURFACE('',#503,4.);
#28=CYLINDRICAL_SURFACE('',#505,4.);
#29=CIRCLE('',#489,12.5);
#30=CIRCLE('',#491,12.5);
#31=ORIENTED_EDGE('',*,*,#147,.F.);
#32=ORIENTED_EDGE('',*,*,#148,.F.);
#33=ORIENTED_EDGE('',*,*,#149,.F.);
#34=ORIENTED_EDGE('',*,*,#150,.F.);
#35=ORIENTED_EDGE('',*,*,#151,.F.);
#36=ORIENTED_EDGE('',*,*,#152,.F.);
#37=ORIENTED_EDGE('',*,*,#153,.F.);
#38=ORIENTED_EDGE('',*,*,#154,.F.);
#39=ORIENTED_EDGE('',*,*,#147,.T.);
#40=ORIENTED_EDGE('',*,*,#155,.F.);
#41=ORIENTED_EDGE('',*,*,#156,.F.);
#42=ORIENTED_EDGE('',*,*,#157,.T.);
#43=ORIENTED_EDGE('',*,*,#150,.T.);
#44=ORIENTED_EDGE('',*,*,#158,.F.);
#45=ORIENTED_EDGE('',*,*,#159,.F.);
#46=ORIENTED_EDGE('',*,*,#155,.T.);
#47=ORIENTED_EDGE('',*,*,#149,.T.);
#48=ORIENTED_EDGE('',*,*,#160,.F.);
#49=ORIENTED_EDGE('',*,*,#161,.F.);
#50=ORIENTED_EDGE('',*,*,#158,.T.);
#51=ORIENTED_EDGE('',*,*,#148,.T.);
#52=ORIENTED_EDGE('',*,*,#157,.F.);
#53=ORIENTED_EDGE('',*,*,#162,.F.);
#54=ORIENTED_EDGE('',*,*,#160,.T.);
#55=ORIENTED_EDGE('',*,*,#163,.F.);
#56=ORIENTED_EDGE('',*,*,#164,.F.);
#57=ORIENTED_EDGE('',*,*,#165,.F.);
#58=ORIENTED_EDGE('',*,*,#166,.F.);
#59=ORIENTED_EDGE('',*,*,#156,.T.);
#60=ORIENTED_EDGE('',*,*,#159,.T.);
#61=ORIENTED_EDGE('',*,*,#161,.T.);
#62=ORIENTED_EDGE('',*,*,#162,.T.);
#63=ORIENTED_EDGE('',*,*,#163,.T.);
#64=ORIENTED_EDGE('',*,*,#167,.F.);
#65=ORIENTED_EDGE('',*,*,#168,.F.);
#66=ORIENTED_EDGE('',*,*,#169,.T.);
#67=ORIENTED_EDGE('',*,*,#166,.T.);
#68=ORIENTED_EDGE('',*,*,#170,.F.);
#69=ORIENTED_EDGE('',*,*,#171,.F.);
#70=ORIENTED_EDGE('',*,*,#167,.T.);
#71=ORIENTED_EDGE('',*,*,#165,.T.);
#72=ORIENTED_EDGE('',*,*,#172,.F.);
#73=ORIENTED_EDGE('',*,*,#173,.F.);
#74=ORIENTED_EDGE('',*,*,#170,.T.);
#75=ORIENTED_EDGE('',*,*,#164,.T.);
#76=ORIENTED_EDGE('',*,*,#169,.F.);
#77=ORIENTED_EDGE('',*,*,#174,.F.);
#78=ORIENTED_EDGE('',*,*,#172,.T.);
#79=ORIENTED_EDGE('',*,*,#175,.F.);
#80=ORIENTED_EDGE('',*,*,#176,.F.);
#81=ORIENTED_EDGE('',*,*,#177,.F.);
#82=ORIENTED_EDGE('',*,*,#178,.F.);
#83=ORIENTED_EDGE('',*,*,#174,.T.);
#84=ORIENTED_EDGE('',*,*,#168,.T.);
#85=ORIENTED_EDGE('',*,*,#171,.T.);
#86=ORIENTED_EDGE('',*,*,#173,.T.);
#87=ORIENTED_EDGE('',*,*,#175,.T.);
#88=ORIENTED_EDGE('',*,*,#179,.F.);
#89=ORIENTED_EDGE('',*,*,#180,.F.);
#90=ORIENTED_EDGE('',*,*,#181,.T.);
#91=ORIENTED_EDGE('',*,*,#178,.T.);
#92=ORIENTED_EDGE('',*,*,#182,.F.);
#93=ORIENTED_EDGE('',*,*,#183,.F.);
#94=ORIENTED_EDGE('',*,*,#179,.T.);
#95=ORIENTED_EDGE('',*,*,#177,.T.);
#96=ORIENTED_EDGE('',*,*,#184,.F.);
#97=ORIENTED_EDGE('',*,*,#185,.F.);
#98=ORIENTED_EDGE('',*,*,#182,.T.);
#99=ORIENTED_EDGE('',*,*,#176,.T.);
#100=ORIENTED_EDGE('',*,*,#181,.F.);
#101=ORIENTED_EDGE('',*,*,#186,.F.);
#102=ORIENTED_EDGE('',*,*,#184,.T.);
#103=ORIENTED_EDGE('',*,*,#187,.T.);
#104=ORIENTED_EDGE('',*,*,#180,.T.);
#105=ORIENTED_EDGE('',*,*,#183,.T.);
#106=ORIENTED_EDGE('',*,*,#185,.T.);
#107=ORIENTED_EDGE('',*,*,#186,.T.);
#108=ORIENTED_EDGE('',*,*,#188,.T.);
#109=ORIENTED_EDGE('',*,*,#187,.F.);
#110=ORIENTED_EDGE('',*,*,#188,.F.);
#111=ORIENTED_EDGE('',*,*,#189,.F.);
#112=ORIENTED_EDGE('',*,*,#190,.T.);
#113=ORIENTED_EDGE('',*,*,#191,.T.);
#114=ORIENTED_EDGE('',*,*,#151,.T.);
#115=ORIENTED_EDGE('',*,*,#192,.F.);
#116=ORIENTED_EDGE('',*,*,#193,.T.);
#117=ORIENTED_EDGE('',*,*,#189,.T.);
#118=ORIENTED_EDGE('',*,*,#154,.T.);
#119=ORIENTED_EDGE('',*,*,#194,.F.);
#120=ORIENTED_EDGE('',*,*,#195,.T.);
#121=ORIENTED_EDGE('',*,*,#192,.T.);
#122=ORIENTED_EDGE('',*,*,#153,.T.);
#123=ORIENTED_EDGE('',*,*,#191,.F.);
#124=ORIENTED_EDGE('',*,*,#196,.T.);
#125=ORIENTED_EDGE('',*,*,#194,.T.);
#126=ORIENTED_EDGE('',*,*,#152,.T.);
#127=ORIENTED_EDGE('',*,*,#197,.T.);
#128=ORIENTED_EDGE('',*,*,#198,.T.);
#129=ORIENTED_EDGE('',*,*,#199,.T.);
#130=ORIENTED_EDGE('',*,*,#200,.T.);
#131=ORIENTED_EDGE('',*,*,#201,.F.);
#132=ORIENTED_EDGE('',*,*,#190,.F.);
#133=ORIENTED_EDGE('',*,*,#202,.F.);
#134=ORIENTED_EDGE('',*,*,#200,.F.);
#135=ORIENTED_EDGE('',*,*,#202,.T.);
#136=ORIENTED_EDGE('',*,*,#193,.F.);
#137=ORIENTED_EDGE('',*,*,#203,.F.);
#138=ORIENTED_EDGE('',*,*,#197,.F.);
#139=ORIENTED_EDGE('',*,*,#201,.T.);
#140=ORIENTED_EDGE('',*,*,#199,.F.);
#141=ORIENTED_EDGE('',*,*,#204,.F.);
#142=ORIENTED_EDGE('',*,*,#196,.F.);
#143=ORIENTED_EDGE('',*,*,#203,.T.);
#144=ORIENTED_EDGE('',*,*,#195,.F.);
#145=ORIENTED_EDGE('',*,*,#204,.T.);
#146=ORIENTED_EDGE('',*,*,#198,.F.);
#147=EDGE_CURVE('',#205,#206,#243,.T.);
#148=EDGE_CURVE('',#207,#205,#244,.T.);
#149=EDGE_CURVE('',#208,#207,#245,.T.);
#150=EDGE_CURVE('',#206,#208,#246,.T.);
#151=EDGE_CURVE('',#209,#210,#247,.T.);
#152=EDGE_CURVE('',#211,#209,#248,.T.);
#153=EDGE_CURVE('',#212,#211,#249,.T.);
#154=EDGE_CURVE('',#210,#212,#250,.T.);
#155=EDGE_CURVE('',#213,#206,#251,.T.);
#156=EDGE_CURVE('',#214,#213,#252,.T.);
#157=EDGE_CURVE('',#214,#205,#253,.T.);
#158=EDGE_CURVE('',#215,#208,#254,.T.);
#159=EDGE_CURVE('',#213,#215,#255,.T.);
#160=EDGE_CURVE('',#216,#207,#256,.T.);
#161=EDGE_CURVE('',#215,#216,#257,.T.);
#162=EDGE_CURVE('',#216,#214,#258,.T.);
#163=EDGE_CURVE('',#217,#218,#259,.T.);
#164=EDGE_CURVE('',#219,#217,#260,.T.);
#165=EDGE_CURVE('',#220,#219,#261,.T.);
#166=EDGE_CURVE('',#218,#220,#262,.T.);
#167=EDGE_CURVE('',#221,#218,#263,.T.);
#168=EDGE_CURVE('',#222,#221,#264,.T.);
#169=EDGE_CURVE('',#222,#217,#265,.T.);
#170=EDGE_CURVE('',#223,#220,#266,.T.);
#171=EDGE_CURVE('',#221,#223,#267,.T.);
#172=EDGE_CURVE('',#224,#219,#268,.T.);
#173=EDGE_CURVE('',#223,#224,#269,.T.);
#174=EDGE_CURVE('',#224,#222,#270,.T.);
#175=EDGE_CURVE('',#225,#226,#271,.T.);
#176=EDGE_CURVE('',#227,#225,#272,.T.);
#177=EDGE_CURVE('',#228,#227,#273,.T.);
#178=EDGE_CURVE('',#226,#228,#274,.T.);
#179=EDGE_CURVE('',#229,#226,#275,.T.);
#180=EDGE_CURVE('',#230,#229,#276,.T.);
#181=EDGE_CURVE('',#230,#225,#277,.T.);
#182=EDGE_CURVE('',#231,#228,#278,.T.);
#183=EDGE_CURVE('',#229,#231,#279,.T.);
#184=EDGE_CURVE('',#232,#227,#280,.T.);
#185=EDGE_CURVE('',#231,#232,#281,.T.);
#186=EDGE_CURVE('',#232,#230,#282,.T.);
#187=EDGE_CURVE('',#233,#233,#29,.T.);
#188=EDGE_CURVE('',#234,#234,#30,.T.);
#189=EDGE_CURVE('',#235,#210,#283,.T.);
#190=EDGE_CURVE('',#235,#236,#284,.F.);
#191=EDGE_CURVE('',#236,#209,#285,.T.);
#192=EDGE_CURVE('',#237,#212,#286,.T.);
#193=EDGE_CURVE('',#237,#235,#287,.F.);
#194=EDGE_CURVE('',#238,#211,#288,.T.);
#195=EDGE_CURVE('',#238,#237,#289,.F.);
#196=EDGE_CURVE('',#236,#238,#290,.F.);
#197=EDGE_CURVE('',#239,#240,#291,.T.);
#198=EDGE_CURVE('',#240,#241,#292,.T.);
#199=EDGE_CURVE('',#241,#242,#293,.T.);
#200=EDGE_CURVE('',#242,#239,#294,.T.);
#201=EDGE_CURVE('',#236,#242,#20,.T.);
#202=EDGE_CURVE('',#239,#235,#21,.F.);
#203=EDGE_CURVE('',#240,#237,#22,.F.);
#204=EDGE_CURVE('',#238,#241,#23,.T.);
#205=VERTEX_POINT('',#629);
#206=VERTEX_POINT('',#630);
#207=VERTEX_POINT('',#632);
#208=VERTEX_POINT('',#634);
#209=VERTEX_POINT('',#637);
#210=VERTEX_POINT('',#638);
#211=VERTEX_POINT('',#640);
#212=VERTEX_POINT('',#642);
#213=VERTEX_POINT('',#646);
#214=VERTEX_POINT('',#648);
#215=VERTEX_POINT('',#652);
#216=VERTEX_POINT('',#656);
#217=VERTEX_POINT('',#662);
#218=VERTEX_POINT('',#663);
#219=VERTEX_POINT('',#665);
#220=VERTEX_POINT('',#667);
#221=VERTEX_POINT('',#671);
#222=VERTEX_POINT('',#673);
#223=VERTEX_POINT('',#677);
#224=VERTEX_POINT('',#681);
#225=VERTEX_POINT('',#687);
#226=VERTEX_POINT('',#688);
#227=VERTEX_POINT('',#690);
#228=VERTEX_POINT('',#692);
#229=VERTEX_POINT('',#696);
#230=VERTEX_POINT('',#698);
#231=VERTEX_POINT('',#702);
#232=VERTEX_POINT('',#706);
#233=VERTEX_POINT('',#712);
#234=VERTEX_POINT('',#715);
#235=VERTEX_POINT('',#719);
#236=VERTEX_POINT('',#721);
#237=VERTEX_POINT('',#725);
#238=VERTEX_POINT('',#729);
#239=VERTEX_POINT('',#735);
#240=VERTEX_POINT('',#736);
#241=VERTEX_POINT('',#738);
#242=VERTEX_POINT('',#740);
#243=LINE('',#628,#295);
#244=LINE('',#631,#296);
#245=LINE('',#633,#297);
#246=LINE('',#635,#298);
#247=LINE('',#636,#299);
#248=LINE('',#639,#300);
#249=LINE('',#641,#301);
#250=LINE('',#643,#302);
#251=LINE('',#645,#303);
#252=LINE('',#647,#304);
#253=LINE('',#649,#305);
#254=LINE('',#651,#306);
#255=LINE('',#653,#307);
#256=LINE('',#655,#308);
#257=LINE('',#657,#309);
#258=LINE('',#659,#310);
#259=LINE('',#661,#311);
#260=LINE('',#664,#312);
#261=LINE('',#666,#313);
#262=LINE('',#668,#314);
#263=LINE('',#670,#315);
#264=LINE('',#672,#316);
#265=LINE('',#674,#317);
#266=LINE('',#676,#318);
#267=LINE('',#678,#319);
#268=LINE('',#680,#320);
#269=LINE('',#682,#321);
#270=LINE('',#684,#322);
#271=LINE('',#686,#323);
#272=LINE('',#689,#324);
#273=LINE('',#691,#325);
#274=LINE('',#693,#326);
#275=LINE('',#695,#327);
#276=LINE('',#697,#328);
#277=LINE('',#699,#329);
#278=LINE('',#701,#330);
#279=LINE('',#703,#331);
#280=LINE('',#705,#332);
#281=LINE('',#707,#333);
#282=LINE('',#709,#334);
#283=LINE('',#718,#335);
#284=LINE('',#720,#336);
#285=LINE('',#722,#337);
#286=LINE('',#724,#338);
#287=LINE('',#726,#339);
#288=LINE('',#728,#340);
#289=LINE('',#730,#341);
#290=LINE('',#732,#342);
#291=LINE('',#734,#343);
#292=LINE('',#737,#344);
#293=LINE('',#739,#345);
#294=LINE('',#741,#346);
#295=VECTOR('',#510,1000.);
#296=VECTOR('',#511,1000.);
#297=VECTOR('',#512,1000.);
#298=VECTOR('',#513,1000.);
#299=VECTOR('',#514,1000.);
#300=VECTOR('',#515,1000.);
#301=VECTOR('',#516,1000.);
#302=VECTOR('',#517,1000.);
#303=VECTOR('',#520,1000.);
#304=VECTOR('',#521,1000.);
#305=VECTOR('',#522,1000.);
#306=VECTOR('',#525,1000.);
#307=VECTOR('',#526,1000.);
#308=VECTOR('',#529,1000.);
#309=VECTOR('',#530,1000.);
#310=VECTOR('',#533,1000.);
#311=VECTOR('',#536,1000.);
#312=VECTOR('',#537,1000.);
#313=VECTOR('',#538,1000.);
#314=VECTOR('',#539,1000.);
#315=VECTOR('',#542,1000.);
#316=VECTOR('',#543,1000.);
#317=VECTOR('',#544,1000.);
#318=VECTOR('',#547,1000.);
#319=VECTOR('',#548,1000.);
#320=VECTOR('',#551,1000.);
#321=VECTOR('',#552,1000.);
#322=VECTOR('',#555,1000.);
#323=VECTOR('',#558,1000.);
#324=VECTOR('',#559,1000.);
#325=VECTOR('',#560,1000.);
#326=VECTOR('',#561,1000.);
#327=VECTOR('',#564,1000.);
#328=VECTOR('',#565,1000.);
#329=VECTOR('',#566,1000.);
#330=VECTOR('',#569,1000.);
#331=VECTOR('',#570,1000.);
#332=VECTOR('',#573,1000.);
#333=VECTOR('',#574,1000.);
#334=VECTOR('',#577,1000.);
#335=VECTOR('',#590,1000.);
#336=VECTOR('',#591,1000.);
#337=VECTOR('',#592,1000.);
#338=VECTOR('',#595,1000.);
#339=VECTOR('',#596,1000.);
#340=VECTOR('',#599,1000.);
#341=VECTOR('',#600,1000.);
#342=VECTOR('',#603,1000.);
#343=VECTOR('',#606,1000.);
#344=VECTOR('',#607,1000.);
#345=VECTOR('',#608,1000.);
#346=VECTOR('',#609,1000.);
#347=EDGE_LOOP('',(#31,#32,#33,#34));
#348=EDGE_LOOP('',(#35,#36,#37,#38));
#349=EDGE_LOOP('',(#39,#40,#41,#42));
#350=EDGE_LOOP('',(#43,#44,#45,#46));
#351=EDGE_LOOP('',(#47,#48,#49,#50));
#352=EDGE_LOOP('',(#51,#52,#53,#54));
#353=EDGE_LOOP('',(#55,#56,#57,#58));
#354=EDGE_LOOP('',(#59,#60,#61,#62));
#355=EDGE_LOOP('',(#63,#64,#65,#66));
#356=EDGE_LOOP('',(#67,#68,#69,#70));
#357=EDGE_LOOP('',(#71,#72,#73,#74));
#358=EDGE_LOOP('',(#75,#76,#77,#78));
#359=EDGE_LOOP('',(#79,#80,#81,#82));
#360=EDGE_LOOP('',(#83,#84,#85,#86));
#361=EDGE_LOOP('',(#87,#88,#89,#90));
#362=EDGE_LOOP('',(#91,#92,#93,#94));
#363=EDGE_LOOP('',(#95,#96,#97,#98));
#364=EDGE_LOOP('',(#99,#100,#101,#102));
#365=EDGE_LOOP('',(#103));
#366=EDGE_LOOP('',(#104,#105,#106,#107));
#367=EDGE_LOOP('',(#108));
#368=EDGE_LOOP('',(#109));
#369=EDGE_LOOP('',(#110));
#370=EDGE_LOOP('',(#111,#112,#113,#114));
#371=EDGE_LOOP('',(#115,#116,#117,#118));
#372=EDGE_LOOP('',(#119,#120,#121,#122));
#373=EDGE_LOOP('',(#123,#124,#125,#126));
#374=EDGE_LOOP('',(#127,#128,#129,#130));
#375=EDGE_LOOP('',(#131,#132,#133,#134));
#376=EDGE_LOOP('',(#135,#136,#137,#138));
#377=EDGE_LOOP('',(#139,#140,#141,#142));
#378=EDGE_LOOP('',(#143,#144,#145,#146));
#379=FACE_BOUND('',#347,.T.);
#380=FACE_BOUND('',#348,.T.);
#381=FACE_BOUND('',#349,.T.);
#382=FACE_BOUND('',#350,.T.);
#383=FACE_BOUND('',#351,.T.);
#384=FACE_BOUND('',#352,.T.);
#385=FACE_BOUND('',#353,.T.);
#386=FACE_BOUND('',#354,.T.);
#387=FACE_BOUND('',#355,.T.);
#388=FACE_BOUND('',#356,.T.);
#389=FACE_BOUND('',#357,.T.);
#390=FACE_BOUND('',#358,.T.);
#391=FACE_BOUND('',#359,.T.);
#392=FACE_BOUND('',#360,.T.);
#393=FACE_BOUND('',#361,.T.);
#394=FACE_BOUND('',#362,.T.);
#395=FACE_BOUND('',#363,.T.);
#396=FACE_BOUND('',#364,.T.);
#397=FACE_BOUND('',#365,.T.);
#398=FACE_BOUND('',#366,.T.);
#399=FACE_BOUND('',#367,.T.);
#400=FACE_BOUND('',#368,.T.);
#401=FACE_BOUND('',#369,.T.);
#402=FACE_BOUND('',#370,.T.);
#403=FACE_BOUND('',#371,.T.);
#404=FACE_BOUND('',#372,.T.);
#405=FACE_BOUND('',#373,.T.);
#406=FACE_BOUND('',#374,.T.);
#407=FACE_BOUND('',#375,.T.);
#408=FACE_BOUND('',#376,.T.);
#409=FACE_BOUND('',#377,.T.);
#410=FACE_BOUND('',#378,.T.);
#411=PLANE('',#473);
#412=PLANE('',#474);
#413=PLANE('',#475);
#414=PLANE('',#476);
#415=PLANE('',#477);
#416=PLANE('',#478);
#417=PLANE('',#479);
#418=PLANE('',#480);
#419=PLANE('',#481);
#420=PLANE('',#482);
#421=PLANE('',#483);
#422=PLANE('',#484);
#423=PLANE('',#485);
#424=PLANE('',#486);
#425=PLANE('',#487);
#426=PLANE('',#488);
#427=PLANE('',#492);
#428=PLANE('',#493);
#429=PLANE('',#494);
#430=PLANE('',#495);
#431=PLANE('',#496);
#432=PLANE('',#497);
#433=ADVANCED_FACE('',(#379,#380),#411,.F.);
#434=ADVANCED_FACE('',(#381),#412,.F.);
#435=ADVANCED_FACE('',(#382),#413,.F.);
#436=ADVANCED_FACE('',(#383),#414,.F.);
#437=ADVANCED_FACE('',(#384),#415,.F.);
#438=ADVANCED_FACE('',(#385,#386),#416,.T.);
#439=ADVANCED_FACE('',(#387),#417,.F.);
#440=ADVANCED_FACE('',(#388),#418,.F.);
#441=ADVANCED_FACE('',(#389),#419,.F.);
#442=ADVANCED_FACE('',(#390),#420,.F.);
#443=ADVANCED_FACE('',(#391,#392),#421,.F.);
#444=ADVANCED_FACE('',(#393),#422,.F.);
#445=ADVANCED_FACE('',(#394),#423,.F.);
#446=ADVANCED_FACE('',(#395),#424,.F.);
#447=ADVANCED_FACE('',(#396),#425,.F.);
#448=ADVANCED_FACE('',(#397,#398),#426,.T.);
#449=ADVANCED_FACE('',(#399,#400),#24,.F.);
#450=ADVANCED_FACE('',(#401),#427,.F.);
#451=ADVANCED_FACE('',(#402),#428,.F.);
#452=ADVANCED_FACE('',(#403),#429,.F.);
#453=ADVANCED_FACE('',(#404),#430,.F.);
#454=ADVANCED_FACE('',(#405),#431,.F.);
#455=ADVANCED_FACE('',(#406),#432,.T.);
#456=ADVANCED_FACE('',(#407),#25,.T.);
#457=ADVANCED_FACE('',(#408),#26,.T.);
#458=ADVANCED_FACE('',(#409),#27,.T.);
#459=ADVANCED_FACE('',(#410),#28,.T.);
#460=CLOSED_SHELL('',(#433,#434,#435,#436,#437,#438,#439,#440,#441,#442,
#443,#444,#445,#446,#447,#448,#449,#450,#451,#452,#453,#454,#455,#456,#457,
#458,#459));
#461=STYLED_ITEM('',(#462),#469);
#462=PRESENTATION_STYLE_ASSIGNMENT((#463));
#463=SURFACE_STYLE_USAGE(.BOTH.,#464);
#464=SURFACE_SIDE_STYLE('',(#465));
#465=SURFACE_STYLE_FILL_AREA(#466);
#466=FILL_AREA_STYLE('',(#467));
#467=FILL_AREA_STYLE_COLOUR('',#468);
#468=COLOUR_RGB('',0.752941191196442,0.752941191196442,0.752941191196442);
#469=MANIFOLD_SOLID_BREP('',#460);
#470=SHAPE_DEFINITION_REPRESENTATION(#756,#471);
#471=SHAPE_REPRESENTATION('SN 8030.2 E',(#472),#751);
#472=AXIS2_PLACEMENT_3D('',#626,#506,#507);
#473=AXIS2_PLACEMENT_3D('',#627,#508,#509);
#474=AXIS2_PLACEMENT_3D('',#644,#518,#519);
#475=AXIS2_PLACEMENT_3D('',#650,#523,#524);
#476=AXIS2_PLACEMENT_3D('',#654,#527,#528);
#477=AXIS2_PLACEMENT_3D('',#658,#531,#532);
#478=AXIS2_PLACEMENT_3D('',#660,#534,#535);
#479=AXIS2_PLACEMENT_3D('',#669,#540,#541);
#480=AXIS2_PLACEMENT_3D('',#675,#545,#546);
#481=AXIS2_PLACEMENT_3D('',#679,#549,#550);
#482=AXIS2_PLACEMENT_3D('',#683,#553,#554);
#483=AXIS2_PLACEMENT_3D('',#685,#556,#557);
#484=AXIS2_PLACEMENT_3D('',#694,#562,#563);
#485=AXIS2_PLACEMENT_3D('',#700,#567,#568);
#486=AXIS2_PLACEMENT_3D('',#704,#571,#572);
#487=AXIS2_PLACEMENT_3D('',#708,#575,#576);
#488=AXIS2_PLACEMENT_3D('',#710,#578,#579);
#489=AXIS2_PLACEMENT_3D('',#711,#580,#581);
#490=AXIS2_PLACEMENT_3D('',#713,#582,#583);
#491=AXIS2_PLACEMENT_3D('',#714,#584,#585);
#492=AXIS2_PLACEMENT_3D('',#716,#586,#587);
#493=AXIS2_PLACEMENT_3D('',#717,#588,#589);
#494=AXIS2_PLACEMENT_3D('',#723,#593,#594);
#495=AXIS2_PLACEMENT_3D('',#727,#597,#598);
#496=AXIS2_PLACEMENT_3D('',#731,#601,#602);
#497=AXIS2_PLACEMENT_3D('',#733,#604,#605);
#498=AXIS2_PLACEMENT_3D('',#742,#610,#611);
#499=AXIS2_PLACEMENT_3D('',#743,#612,#613);
#500=AXIS2_PLACEMENT_3D('',#744,#614,#615);
#501=AXIS2_PLACEMENT_3D('',#745,#616,#617);
#502=AXIS2_PLACEMENT_3D('',#746,#618,#619);
#503=AXIS2_PLACEMENT_3D('',#747,#620,#621);
#504=AXIS2_PLACEMENT_3D('',#748,#622,#623);
#505=AXIS2_PLACEMENT_3D('',#749,#624,#625);
#506=DIRECTION('',(0.,0.,1.));
#507=DIRECTION('',(1.,0.,0.));
#508=DIRECTION('',(0.,0.,1.));
#509=DIRECTION('',(1.,0.,0.));
#510=DIRECTION('',(-1.,0.,0.));
#511=DIRECTION('',(0.,1.,0.));
#512=DIRECTION('',(1.,0.,0.));
#513=DIRECTION('',(0.,-1.,0.));
#514=DIRECTION('',(0.,1.,0.));
#515=DIRECTION('',(-1.,0.,0.));
#516=DIRECTION('',(0.,-1.,0.));
#517=DIRECTION('',(1.,0.,0.));
#518=DIRECTION('',(0.,-1.,0.));
#519=DIRECTION('',(0.,0.,-1.));
#520=DIRECTION('',(0.,0.,-1.));
#521=DIRECTION('',(-1.,0.,0.));
#522=DIRECTION('',(0.,0.,-1.));
#523=DIRECTION('',(1.,0.,0.));
#524=DIRECTION('',(0.,0.,-1.));
#525=DIRECTION('',(0.,0.,-1.));
#526=DIRECTION('',(0.,-1.,0.));
#527=DIRECTION('',(0.,1.,0.));
#528=DIRECTION('',(0.,0.,1.));
#529=DIRECTION('',(0.,0.,-1.));
#530=DIRECTION('',(1.,0.,0.));
#531=DIRECTION('',(-1.,0.,0.));
#532=DIRECTION('',(0.,0.,1.));
#533=DIRECTION('',(0.,1.,0.));
#534=DIRECTION('',(0.,0.,1.));
#535=DIRECTION('',(1.,0.,0.));
#536=DIRECTION('',(0.,-1.,0.));
#537=DIRECTION('',(-1.,0.,0.));
#538=DIRECTION('',(0.,1.,0.));
#539=DIRECTION('',(1.,0.,0.));
#540=DIRECTION('',(1.,0.,0.));
#541=DIRECTION('',(0.,0.,-1.));
#542=DIRECTION('',(0.,0.,-1.));
#543=DIRECTION('',(0.,-1.,0.));
#544=DIRECTION('',(0.,0.,-1.));
#545=DIRECTION('',(0.,1.,0.));
#546=DIRECTION('',(0.,0.,1.));
#547=DIRECTION('',(0.,0.,-1.));
#548=DIRECTION('',(1.,0.,0.));
#549=DIRECTION('',(-1.,0.,0.));
#550=DIRECTION('',(0.,0.,1.));
#551=DIRECTION('',(0.,0.,-1.));
#552=DIRECTION('',(0.,1.,0.));
#553=DIRECTION('',(0.,-1.,0.));
#554=DIRECTION('',(0.,0.,-1.));
#555=DIRECTION('',(-1.,0.,0.));
#556=DIRECTION('',(0.,0.,1.));
#557=DIRECTION('',(1.,0.,0.));
#558=DIRECTION('',(0.,-1.,0.));
#559=DIRECTION('',(-1.,0.,0.));
#560=DIRECTION('',(0.,1.,0.));
#561=DIRECTION('',(1.,0.,0.));
#562=DIRECTION('',(1.,0.,0.));
#563=DIRECTION('',(0.,0.,-1.));
#564=DIRECTION('',(0.,0.,-1.));
#565=DIRECTION('',(0.,-1.,0.));
#566=DIRECTION('',(0.,0.,-1.));
#567=DIRECTION('',(0.,1.,0.));
#568=DIRECTION('',(0.,0.,1.));
#569=DIRECTION('',(0.,0.,-1.));
#570=DIRECTION('',(1.,0.,0.));
#571=DIRECTION('',(-1.,0.,0.));
#572=DIRECTION('',(0.,0.,1.));
#573=DIRECTION('',(0.,0.,-1.));
#574=DIRECTION('',(0.,1.,0.));
#575=DIRECTION('',(0.,-1.,0.));
#576=DIRECTION('',(0.,0.,-1.));
#577=DIRECTION('',(-1.,0.,0.));
#578=DIRECTION('',(0.,0.,1.));
#579=DIRECTION('',(1.,0.,0.));
#580=DIRECTION('',(0.,0.,-1.));
#581=DIRECTION('',(0.,1.,0.));
#582=DIRECTION('',(0.,0.,1.));
#583=DIRECTION('',(1.,0.,0.));
#584=DIRECTION('',(0.,0.,-1.));
#585=DIRECTION('',(0.,1.,0.));
#586=DIRECTION('',(0.,0.,-1.));
#587=DIRECTION('',(-1.,0.,0.));
#588=DIRECTION('',(1.,0.,0.));
#589=DIRECTION('',(0.,0.,-1.));
#590=DIRECTION('',(0.,0.,1.));
#591=DIRECTION('',(0.,1.,0.));
#592=DIRECTION('',(0.,0.,1.));
#593=DIRECTION('',(0.,-1.,0.));
#594=DIRECTION('',(0.,0.,-1.));
#595=DIRECTION('',(0.,0.,1.));
#596=DIRECTION('',(1.,0.,0.));
#597=DIRECTION('',(-1.,0.,0.));
#598=DIRECTION('',(0.,0.,1.));
#599=DIRECTION('',(0.,0.,1.));
#600=DIRECTION('',(0.,-1.,0.));
#601=DIRECTION('',(0.,1.,0.));
#602=DIRECTION('',(0.,0.,1.));
#603=DIRECTION('',(-1.,0.,0.));
#604=DIRECTION('',(0.,0.,-1.));
#605=DIRECTION('',(-1.,0.,0.));
#606=DIRECTION('',(1.,0.,0.));
#607=DIRECTION('',(0.,-1.,0.));
#608=DIRECTION('',(-1.,0.,0.));
#609=DIRECTION('',(0.,1.,0.));
#610=DIRECTION('',(0.,-1.,0.));
#611=DIRECTION('',(0.,0.,-1.));
#612=DIRECTION('',(0.707106781186547,-0.707106781186547,0.));
#613=DIRECTION('',(-0.707106781186547,-0.707106781186547,0.));
#614=DIRECTION('',(-0.707106781186547,-0.707106781186547,0.));
#615=DIRECTION('',(0.707106781186547,-0.707106781186547,0.));
#616=DIRECTION('',(-1.,0.,0.));
#617=DIRECTION('',(0.,0.,1.));
#618=DIRECTION('',(-0.707106781186547,0.707106781186547,0.));
#619=DIRECTION('',(-0.707106781186547,-0.707106781186547,0.));
#620=DIRECTION('',(1.,0.,0.));
#621=DIRECTION('',(0.,0.,-1.));
#622=DIRECTION('',(0.707106781186547,0.707106781186547,0.));
#623=DIRECTION('',(0.707106781186547,-0.707106781186547,0.));
#624=DIRECTION('',(0.,1.,0.));
#625=DIRECTION('',(0.,0.,1.));
#626=CARTESIAN_POINT('',(0.,0.,0.));
#627=CARTESIAN_POINT('',(0.,0.,0.));
#628=CARTESIAN_POINT('',(87.5,87.5,0.));
#629=CARTESIAN_POINT('',(87.5,87.5,0.));
#630=CARTESIAN_POINT('',(-87.5,87.5,0.));
#631=CARTESIAN_POINT('',(87.5,-87.5,0.));
#632=CARTESIAN_POINT('',(87.5,-87.5,0.));
#633=CARTESIAN_POINT('',(-87.5,-87.5,0.));
#634=CARTESIAN_POINT('',(-87.5,-87.5,0.));
#635=CARTESIAN_POINT('',(-87.5,87.5,0.));
#636=CARTESIAN_POINT('',(-42.5,-42.5,0.));
#637=CARTESIAN_POINT('',(-42.5,-42.5,0.));
#638=CARTESIAN_POINT('',(-42.5,42.5,0.));
#639=CARTESIAN_POINT('',(42.5,-42.5,0.));
#640=CARTESIAN_POINT('',(42.5,-42.5,0.));
#641=CARTESIAN_POINT('',(42.5,42.5,0.));
#642=CARTESIAN_POINT('',(42.5,42.5,0.));
#643=CARTESIAN_POINT('',(-42.5,42.5,0.));
#644=CARTESIAN_POINT('',(87.5,87.5,2.));
#645=CARTESIAN_POINT('',(-87.5,87.5,2.));
#646=CARTESIAN_POINT('',(-87.5,87.5,2.));
#647=CARTESIAN_POINT('',(87.5,87.5,2.));
#648=CARTESIAN_POINT('',(87.5,87.5,2.));
#649=CARTESIAN_POINT('',(87.5,87.5,2.));
#650=CARTESIAN_POINT('',(-87.5,87.5,2.));
#651=CARTESIAN_POINT('',(-87.5,-87.5,2.));
#652=CARTESIAN_POINT('',(-87.5,-87.5,2.));
#653=CARTESIAN_POINT('',(-87.5,87.5,2.));
#654=CARTESIAN_POINT('',(-87.5,-87.5,2.));
#655=CARTESIAN_POINT('',(87.5,-87.5,2.));
#656=CARTESIAN_POINT('',(87.5,-87.5,2.));
#657=CARTESIAN_POINT('',(-87.5,-87.5,2.));
#658=CARTESIAN_POINT('',(87.5,-87.5,2.));
#659=CARTESIAN_POINT('',(87.5,-87.5,2.));
#660=CARTESIAN_POINT('',(0.,0.,2.));
#661=CARTESIAN_POINT('',(-59.,59.,2.));
#662=CARTESIAN_POINT('',(-59.,59.,2.));
#663=CARTESIAN_POINT('',(-59.,-59.,2.));
#664=CARTESIAN_POINT('',(59.,59.,2.));
#665=CARTESIAN_POINT('',(59.,59.,2.));
#666=CARTESIAN_POINT('',(59.,-59.,2.));
#667=CARTESIAN_POINT('',(59.,-59.,2.));
#668=CARTESIAN_POINT('',(-59.,-59.,2.));
#669=CARTESIAN_POINT('',(-59.,59.,14.));
#670=CARTESIAN_POINT('',(-59.,-59.,14.));
#671=CARTESIAN_POINT('',(-59.,-59.,14.));
#672=CARTESIAN_POINT('',(-59.,59.,14.));
#673=CARTESIAN_POINT('',(-59.,59.,14.));
#674=CARTESIAN_POINT('',(-59.,59.,14.));
#675=CARTESIAN_POINT('',(-59.,-59.,14.));
#676=CARTESIAN_POINT('',(59.,-59.,14.));
#677=CARTESIAN_POINT('',(59.,-59.,14.));
#678=CARTESIAN_POINT('',(-59.,-59.,14.));
#679=CARTESIAN_POINT('',(59.,-59.,14.));
#680=CARTESIAN_POINT('',(59.,59.,14.));
#681=CARTESIAN_POINT('',(59.,59.,14.));
#682=CARTESIAN_POINT('',(59.,-59.,14.));
#683=CARTESIAN_POINT('',(59.,59.,14.));
#684=CARTESIAN_POINT('',(59.,59.,14.));
#685=CARTESIAN_POINT('',(0.,0.,14.));
#686=CARTESIAN_POINT('',(-60.5,60.5,14.));
#687=CARTESIAN_POINT('',(-60.5,60.5,14.));
#688=CARTESIAN_POINT('',(-60.5,-60.5,14.));
#689=CARTESIAN_POINT('',(60.5,60.5,14.));
#690=CARTESIAN_POINT('',(60.5,60.5,14.));
#691=CARTESIAN_POINT('',(60.5,-60.5,14.));
#692=CARTESIAN_POINT('',(60.5,-60.5,14.));
#693=CARTESIAN_POINT('',(-60.5,-60.5,14.));
#694=CARTESIAN_POINT('',(-60.5,60.5,25.));
#695=CARTESIAN_POINT('',(-60.5,-60.5,25.));
#696=CARTESIAN_POINT('',(-60.5,-60.5,25.));
#697=CARTESIAN_POINT('',(-60.5,60.5,25.));
#698=CARTESIAN_POINT('',(-60.5,60.5,25.));
#699=CARTESIAN_POINT('',(-60.5,60.5,25.));
#700=CARTESIAN_POINT('',(-60.5,-60.5,25.));
#701=CARTESIAN_POINT('',(60.5,-60.5,25.));
#702=CARTESIAN_POINT('',(60.5,-60.5,25.));
#703=CARTESIAN_POINT('',(-60.5,-60.5,25.));
#704=CARTESIAN_POINT('',(60.5,-60.5,25.));
#705=CARTESIAN_POINT('',(60.5,60.5,25.));
#706=CARTESIAN_POINT('',(60.5,60.5,25.));
#707=CARTESIAN_POINT('',(60.5,-60.5,25.));
#708=CARTESIAN_POINT('',(60.5,60.5,25.));
#709=CARTESIAN_POINT('',(60.5,60.5,25.));
#710=CARTESIAN_POINT('',(0.,0.,25.));
#711=CARTESIAN_POINT('',(0.,25.5,25.));
#712=CARTESIAN_POINT('',(0.,38.,25.));
#713=CARTESIAN_POINT('',(0.,25.5,24.));
#714=CARTESIAN_POINT('',(0.,25.5,24.));
#715=CARTESIAN_POINT('',(0.,38.,24.));
#716=CARTESIAN_POINT('',(0.,25.5,24.));
#717=CARTESIAN_POINT('',(-42.5,-42.5,-6.));
#718=CARTESIAN_POINT('',(-42.5,42.5,-6.));
#719=CARTESIAN_POINT('',(-42.5,42.5,-2.));
#720=CARTESIAN_POINT('',(-42.5,-42.5,-2.));
#721=CARTESIAN_POINT('',(-42.5,-42.5,-2.));
#722=CARTESIAN_POINT('',(-42.5,-42.5,-6.));
#723=CARTESIAN_POINT('',(-42.5,42.5,-6.));
#724=CARTESIAN_POINT('',(42.5,42.5,-6.));
#725=CARTESIAN_POINT('',(42.5,42.5,-2.));
#726=CARTESIAN_POINT('',(-42.5,42.5,-2.));
#727=CARTESIAN_POINT('',(42.5,42.5,-6.));
#728=CARTESIAN_POINT('',(42.5,-42.5,-6.));
#729=CARTESIAN_POINT('',(42.5,-42.5,-2.));
#730=CARTESIAN_POINT('',(42.5,42.5,-2.));
#731=CARTESIAN_POINT('',(42.5,-42.5,-6.));
#732=CARTESIAN_POINT('',(42.5,-42.5,-2.));
#733=CARTESIAN_POINT('',(0.,0.,-6.));
#734=CARTESIAN_POINT('',(42.5,38.5,-6.));
#735=CARTESIAN_POINT('',(-38.5,38.5,-6.));
#736=CARTESIAN_POINT('',(38.5,38.5,-6.));
#737=CARTESIAN_POINT('',(38.5,-42.5,-6.));
#738=CARTESIAN_POINT('',(38.5,-38.5,-6.));
#739=CARTESIAN_POINT('',(-42.5,-38.5,-6.));
#740=CARTESIAN_POINT('',(-38.5,-38.5,-6.));
#741=CARTESIAN_POINT('',(-38.5,42.5,-6.));
#742=CARTESIAN_POINT('',(-38.5,0.,-2.));
#743=CARTESIAN_POINT('',(-38.5,-38.5,-2.));
#744=CARTESIAN_POINT('',(-38.5,38.5,-2.));
#745=CARTESIAN_POINT('',(0.,38.5,-2.));
#746=CARTESIAN_POINT('',(38.5,38.5,-2.));
#747=CARTESIAN_POINT('',(0.,-38.5,-2.));
#748=CARTESIAN_POINT('',(38.5,-38.5,-2.));
#749=CARTESIAN_POINT('',(38.5,0.,-2.));
#750=MECHANICAL_DESIGN_GEOMETRIC_PRESENTATION_REPRESENTATION('',(#461),
#751);
#751=(
GEOMETRIC_REPRESENTATION_CONTEXT(3)
GLOBAL_UNCERTAINTY_ASSIGNED_CONTEXT((#752))
GLOBAL_UNIT_ASSIGNED_CONTEXT((#755,#754,#753))
REPRESENTATION_CONTEXT('SN 8030.2 E','TOP_LEVEL_ASSEMBLY_PART')
);
#752=UNCERTAINTY_MEASURE_WITH_UNIT(LENGTH_MEASURE(0.005),#755,
'DISTANCE_ACCURACY_VALUE','Maximum Tolerance applied to model');
#753=(
NAMED_UNIT(*)
SI_UNIT($,.STERADIAN.)
SOLID_ANGLE_UNIT()
);
#754=(
NAMED_UNIT(*)
PLANE_ANGLE_UNIT()
SI_UNIT($,.RADIAN.)
);
#755=(
LENGTH_UNIT()
NAMED_UNIT(*)
SI_UNIT(.MILLI.,.METRE.)
);
#756=PRODUCT_DEFINITION_SHAPE('','',#757);
#757=PRODUCT_DEFINITION('','',#759,#758);
#758=PRODUCT_DEFINITION_CONTEXT('',#765,'design');
#759=PRODUCT_DEFINITION_FORMATION_WITH_SPECIFIED_SOURCE('','',#761,
 .NOT_KNOWN.);
#760=PRODUCT_RELATED_PRODUCT_CATEGORY('','',(#761));
#761=PRODUCT('SN 8030.2 E','SN 8030.2 E','SN 8030.2 E',(#763));
#762=PRODUCT_CATEGORY('','');
#763=PRODUCT_CONTEXT('',#765,'mechanical');
#764=APPLICATION_PROTOCOL_DEFINITION('international standard',
'automotive_design',2010,#765);
#765=APPLICATION_CONTEXT(
'core data for automotive mechanical design processes');
ENDSEC;
END-ISO-10303-21;
