ISO-10303-21;
HEADER;
/* Generated by software containing ST-Developer
 * from STEP Tools, Inc. (www.steptools.com) 
 */
/* OPTION: strings as raw bytes, not using required /X/ escapes */

FILE_DESCRIPTION(
/* description */ ('Unknown'),
/* implementation_level */ '2;1');

FILE_NAME(
/* name */ 'SN 8030 E LED 230V',
/* time_stamp */ '2018-06-19T14:53:48+02:00',
/* author */ ('Unknown'),
/* organization */ ('Unknown'),
/* preprocessor_version */ 'ST-DEVELOPER v16.7',
/* originating_system */ 'DEX',
/* authorisation */ $);

FILE_SCHEMA (('AUTOMOTIVE_DESIGN {1 0 10303 214 3 1 1}'));
ENDSEC;

DATA;
#10=PROPERTY_DEFINITION_REPRESENTATION(#14,#12);
#11=PROPERTY_DEFINITION_REPRESENTATION(#15,#13);
#12=REPRESENTATION('',(#16),#469);
#13=REPRESENTATION('',(#17),#469);
#14=PROPERTY_DEFINITION('pmi validation property','',#474);
#15=PROPERTY_DEFINITION('pmi validation property','',#474);
#16=VALUE_REPRESENTATION_ITEM('number of annotations',COUNT_MEASURE(0.));
#17=VALUE_REPRESENTATION_ITEM('number of views',COUNT_MEASURE(0.));
#18=SHAPE_REPRESENTATION_RELATIONSHIP('','',#303,#19);
#19=ADVANCED_BREP_SHAPE_REPRESENTATION('',(#301),#469);
#20=ORIENTED_EDGE('',*,*,#92,.F.);
#21=ORIENTED_EDGE('',*,*,#93,.F.);
#22=ORIENTED_EDGE('',*,*,#94,.T.);
#23=ORIENTED_EDGE('',*,*,#95,.T.);
#24=ORIENTED_EDGE('',*,*,#96,.F.);
#25=ORIENTED_EDGE('',*,*,#95,.F.);
#26=ORIENTED_EDGE('',*,*,#97,.T.);
#27=ORIENTED_EDGE('',*,*,#98,.T.);
#28=ORIENTED_EDGE('',*,*,#99,.F.);
#29=ORIENTED_EDGE('',*,*,#98,.F.);
#30=ORIENTED_EDGE('',*,*,#100,.T.);
#31=ORIENTED_EDGE('',*,*,#101,.T.);
#32=ORIENTED_EDGE('',*,*,#102,.F.);
#33=ORIENTED_EDGE('',*,*,#101,.F.);
#34=ORIENTED_EDGE('',*,*,#103,.T.);
#35=ORIENTED_EDGE('',*,*,#93,.T.);
#36=ORIENTED_EDGE('',*,*,#94,.F.);
#37=ORIENTED_EDGE('',*,*,#103,.F.);
#38=ORIENTED_EDGE('',*,*,#100,.F.);
#39=ORIENTED_EDGE('',*,*,#97,.F.);
#40=ORIENTED_EDGE('',*,*,#104,.T.);
#41=ORIENTED_EDGE('',*,*,#105,.F.);
#42=ORIENTED_EDGE('',*,*,#106,.F.);
#43=ORIENTED_EDGE('',*,*,#107,.T.);
#44=ORIENTED_EDGE('',*,*,#108,.T.);
#45=ORIENTED_EDGE('',*,*,#109,.F.);
#46=ORIENTED_EDGE('',*,*,#110,.F.);
#47=ORIENTED_EDGE('',*,*,#105,.T.);
#48=ORIENTED_EDGE('',*,*,#111,.T.);
#49=ORIENTED_EDGE('',*,*,#112,.F.);
#50=ORIENTED_EDGE('',*,*,#113,.F.);
#51=ORIENTED_EDGE('',*,*,#109,.T.);
#52=ORIENTED_EDGE('',*,*,#114,.T.);
#53=ORIENTED_EDGE('',*,*,#115,.F.);
#54=ORIENTED_EDGE('',*,*,#116,.F.);
#55=ORIENTED_EDGE('',*,*,#117,.T.);
#56=ORIENTED_EDGE('',*,*,#118,.T.);
#57=ORIENTED_EDGE('',*,*,#119,.F.);
#58=ORIENTED_EDGE('',*,*,#120,.F.);
#59=ORIENTED_EDGE('',*,*,#115,.T.);
#60=ORIENTED_EDGE('',*,*,#121,.T.);
#61=ORIENTED_EDGE('',*,*,#122,.F.);
#62=ORIENTED_EDGE('',*,*,#123,.F.);
#63=ORIENTED_EDGE('',*,*,#119,.T.);
#64=ORIENTED_EDGE('',*,*,#124,.T.);
#65=ORIENTED_EDGE('',*,*,#117,.F.);
#66=ORIENTED_EDGE('',*,*,#125,.F.);
#67=ORIENTED_EDGE('',*,*,#122,.T.);
#68=ORIENTED_EDGE('',*,*,#126,.T.);
#69=ORIENTED_EDGE('',*,*,#107,.F.);
#70=ORIENTED_EDGE('',*,*,#127,.F.);
#71=ORIENTED_EDGE('',*,*,#112,.T.);
#72=ORIENTED_EDGE('',*,*,#116,.T.);
#73=ORIENTED_EDGE('',*,*,#120,.T.);
#74=ORIENTED_EDGE('',*,*,#123,.T.);
#75=ORIENTED_EDGE('',*,*,#125,.T.);
#76=ORIENTED_EDGE('',*,*,#106,.T.);
#77=ORIENTED_EDGE('',*,*,#110,.T.);
#78=ORIENTED_EDGE('',*,*,#113,.T.);
#79=ORIENTED_EDGE('',*,*,#127,.T.);
#80=ORIENTED_EDGE('',*,*,#92,.T.);
#81=ORIENTED_EDGE('',*,*,#96,.T.);
#82=ORIENTED_EDGE('',*,*,#99,.T.);
#83=ORIENTED_EDGE('',*,*,#102,.T.);
#84=ORIENTED_EDGE('',*,*,#114,.F.);
#85=ORIENTED_EDGE('',*,*,#124,.F.);
#86=ORIENTED_EDGE('',*,*,#121,.F.);
#87=ORIENTED_EDGE('',*,*,#118,.F.);
#88=ORIENTED_EDGE('',*,*,#108,.F.);
#89=ORIENTED_EDGE('',*,*,#104,.F.);
#90=ORIENTED_EDGE('',*,*,#126,.F.);
#91=ORIENTED_EDGE('',*,*,#111,.F.);
#92=EDGE_CURVE('',#128,#129,#152,.T.);
#93=EDGE_CURVE('',#130,#128,#153,.T.);
#94=EDGE_CURVE('',#130,#131,#154,.T.);
#95=EDGE_CURVE('',#131,#129,#155,.T.);
#96=EDGE_CURVE('',#129,#132,#156,.T.);
#97=EDGE_CURVE('',#131,#133,#157,.T.);
#98=EDGE_CURVE('',#133,#132,#158,.T.);
#99=EDGE_CURVE('',#132,#134,#159,.T.);
#100=EDGE_CURVE('',#133,#135,#160,.T.);
#101=EDGE_CURVE('',#135,#134,#161,.T.);
#102=EDGE_CURVE('',#134,#128,#162,.T.);
#103=EDGE_CURVE('',#135,#130,#163,.T.);
#104=EDGE_CURVE('',#136,#137,#164,.T.);
#105=EDGE_CURVE('',#138,#137,#165,.T.);
#106=EDGE_CURVE('',#139,#138,#166,.T.);
#107=EDGE_CURVE('',#139,#136,#167,.T.);
#108=EDGE_CURVE('',#137,#140,#168,.T.);
#109=EDGE_CURVE('',#141,#140,#169,.T.);
#110=EDGE_CURVE('',#138,#141,#170,.T.);
#111=EDGE_CURVE('',#140,#142,#171,.T.);
#112=EDGE_CURVE('',#143,#142,#172,.T.);
#113=EDGE_CURVE('',#141,#143,#173,.T.);
#114=EDGE_CURVE('',#144,#145,#174,.T.);
#115=EDGE_CURVE('',#146,#145,#175,.T.);
#116=EDGE_CURVE('',#147,#146,#176,.T.);
#117=EDGE_CURVE('',#147,#144,#177,.T.);
#118=EDGE_CURVE('',#145,#148,#178,.T.);
#119=EDGE_CURVE('',#149,#148,#179,.T.);
#120=EDGE_CURVE('',#146,#149,#180,.T.);
#121=EDGE_CURVE('',#148,#150,#181,.T.);
#122=EDGE_CURVE('',#151,#150,#182,.T.);
#123=EDGE_CURVE('',#149,#151,#183,.T.);
#124=EDGE_CURVE('',#150,#144,#184,.T.);
#125=EDGE_CURVE('',#151,#147,#185,.T.);
#126=EDGE_CURVE('',#142,#136,#186,.T.);
#127=EDGE_CURVE('',#143,#139,#187,.T.);
#128=VERTEX_POINT('',#394);
#129=VERTEX_POINT('',#395);
#130=VERTEX_POINT('',#397);
#131=VERTEX_POINT('',#399);
#132=VERTEX_POINT('',#403);
#133=VERTEX_POINT('',#405);
#134=VERTEX_POINT('',#409);
#135=VERTEX_POINT('',#411);
#136=VERTEX_POINT('',#419);
#137=VERTEX_POINT('',#420);
#138=VERTEX_POINT('',#422);
#139=VERTEX_POINT('',#424);
#140=VERTEX_POINT('',#428);
#141=VERTEX_POINT('',#430);
#142=VERTEX_POINT('',#434);
#143=VERTEX_POINT('',#436);
#144=VERTEX_POINT('',#440);
#145=VERTEX_POINT('',#441);
#146=VERTEX_POINT('',#443);
#147=VERTEX_POINT('',#445);
#148=VERTEX_POINT('',#449);
#149=VERTEX_POINT('',#451);
#150=VERTEX_POINT('',#455);
#151=VERTEX_POINT('',#457);
#152=LINE('',#393,#188);
#153=LINE('',#396,#189);
#154=LINE('',#398,#190);
#155=LINE('',#400,#191);
#156=LINE('',#402,#192);
#157=LINE('',#404,#193);
#158=LINE('',#406,#194);
#159=LINE('',#408,#195);
#160=LINE('',#410,#196);
#161=LINE('',#412,#197);
#162=LINE('',#414,#198);
#163=LINE('',#415,#199);
#164=LINE('',#418,#200);
#165=LINE('',#421,#201);
#166=LINE('',#423,#202);
#167=LINE('',#425,#203);
#168=LINE('',#427,#204);
#169=LINE('',#429,#205);
#170=LINE('',#431,#206);
#171=LINE('',#433,#207);
#172=LINE('',#435,#208);
#173=LINE('',#437,#209);
#174=LINE('',#439,#210);
#175=LINE('',#442,#211);
#176=LINE('',#444,#212);
#177=LINE('',#446,#213);
#178=LINE('',#448,#214);
#179=LINE('',#450,#215);
#180=LINE('',#452,#216);
#181=LINE('',#454,#217);
#182=LINE('',#456,#218);
#183=LINE('',#458,#219);
#184=LINE('',#460,#220);
#185=LINE('',#461,#221);
#186=LINE('',#463,#222);
#187=LINE('',#464,#223);
#188=VECTOR('',#325,1000.);
#189=VECTOR('',#326,1000.);
#190=VECTOR('',#327,1000.);
#191=VECTOR('',#328,1000.);
#192=VECTOR('',#331,1000.);
#193=VECTOR('',#332,1000.);
#194=VECTOR('',#333,1000.);
#195=VECTOR('',#336,1000.);
#196=VECTOR('',#337,1000.);
#197=VECTOR('',#338,1000.);
#198=VECTOR('',#341,1000.);
#199=VECTOR('',#342,1000.);
#200=VECTOR('',#347,1000.);
#201=VECTOR('',#348,1000.);
#202=VECTOR('',#349,1000.);
#203=VECTOR('',#350,1000.);
#204=VECTOR('',#353,1000.);
#205=VECTOR('',#354,1000.);
#206=VECTOR('',#355,1000.);
#207=VECTOR('',#358,1000.);
#208=VECTOR('',#359,1000.);
#209=VECTOR('',#360,1000.);
#210=VECTOR('',#363,1000.);
#211=VECTOR('',#364,1000.);
#212=VECTOR('',#365,1000.);
#213=VECTOR('',#366,1000.);
#214=VECTOR('',#369,1000.);
#215=VECTOR('',#370,1000.);
#216=VECTOR('',#371,1000.);
#217=VECTOR('',#374,1000.);
#218=VECTOR('',#375,1000.);
#219=VECTOR('',#376,1000.);
#220=VECTOR('',#379,1000.);
#221=VECTOR('',#380,1000.);
#222=VECTOR('',#383,1000.);
#223=VECTOR('',#384,1000.);
#224=EDGE_LOOP('',(#20,#21,#22,#23));
#225=EDGE_LOOP('',(#24,#25,#26,#27));
#226=EDGE_LOOP('',(#28,#29,#30,#31));
#227=EDGE_LOOP('',(#32,#33,#34,#35));
#228=EDGE_LOOP('',(#36,#37,#38,#39));
#229=EDGE_LOOP('',(#40,#41,#42,#43));
#230=EDGE_LOOP('',(#44,#45,#46,#47));
#231=EDGE_LOOP('',(#48,#49,#50,#51));
#232=EDGE_LOOP('',(#52,#53,#54,#55));
#233=EDGE_LOOP('',(#56,#57,#58,#59));
#234=EDGE_LOOP('',(#60,#61,#62,#63));
#235=EDGE_LOOP('',(#64,#65,#66,#67));
#236=EDGE_LOOP('',(#68,#69,#70,#71));
#237=EDGE_LOOP('',(#72,#73,#74,#75));
#238=EDGE_LOOP('',(#76,#77,#78,#79));
#239=EDGE_LOOP('',(#80,#81,#82,#83));
#240=EDGE_LOOP('',(#84,#85,#86,#87));
#241=EDGE_LOOP('',(#88,#89,#90,#91));
#242=FACE_BOUND('',#224,.T.);
#243=FACE_BOUND('',#225,.T.);
#244=FACE_BOUND('',#226,.T.);
#245=FACE_BOUND('',#227,.T.);
#246=FACE_BOUND('',#228,.T.);
#247=FACE_BOUND('',#229,.T.);
#248=FACE_BOUND('',#230,.T.);
#249=FACE_BOUND('',#231,.T.);
#250=FACE_BOUND('',#232,.T.);
#251=FACE_BOUND('',#233,.T.);
#252=FACE_BOUND('',#234,.T.);
#253=FACE_BOUND('',#235,.T.);
#254=FACE_BOUND('',#236,.T.);
#255=FACE_BOUND('',#237,.T.);
#256=FACE_BOUND('',#238,.T.);
#257=FACE_BOUND('',#239,.T.);
#258=FACE_BOUND('',#240,.T.);
#259=FACE_BOUND('',#241,.T.);
#260=PLANE('',#305);
#261=PLANE('',#306);
#262=PLANE('',#307);
#263=PLANE('',#308);
#264=PLANE('',#309);
#265=PLANE('',#310);
#266=PLANE('',#311);
#267=PLANE('',#312);
#268=PLANE('',#313);
#269=PLANE('',#314);
#270=PLANE('',#315);
#271=PLANE('',#316);
#272=PLANE('',#317);
#273=PLANE('',#318);
#274=PLANE('',#319);
#275=PLANE('',#320);
#276=ADVANCED_FACE('',(#242),#260,.T.);
#277=ADVANCED_FACE('',(#243),#261,.T.);
#278=ADVANCED_FACE('',(#244),#262,.T.);
#279=ADVANCED_FACE('',(#245),#263,.T.);
#280=ADVANCED_FACE('',(#246),#264,.F.);
#281=ADVANCED_FACE('',(#247),#265,.F.);
#282=ADVANCED_FACE('',(#248),#266,.F.);
#283=ADVANCED_FACE('',(#249),#267,.F.);
#284=ADVANCED_FACE('',(#250),#268,.F.);
#285=ADVANCED_FACE('',(#251),#269,.F.);
#286=ADVANCED_FACE('',(#252),#270,.F.);
#287=ADVANCED_FACE('',(#253),#271,.F.);
#288=ADVANCED_FACE('',(#254),#272,.F.);
#289=ADVANCED_FACE('',(#255,#256),#273,.T.);
#290=ADVANCED_FACE('',(#257,#258),#274,.F.);
#291=ADVANCED_FACE('',(#259),#275,.T.);
#292=CLOSED_SHELL('',(#276,#277,#278,#279,#280,#281,#282,#283,#284,#285,
#286,#287,#288,#289,#290,#291));
#293=STYLED_ITEM('',(#294),#301);
#294=PRESENTATION_STYLE_ASSIGNMENT((#295));
#295=SURFACE_STYLE_USAGE(.BOTH.,#296);
#296=SURFACE_SIDE_STYLE('',(#297));
#297=SURFACE_STYLE_FILL_AREA(#298);
#298=FILL_AREA_STYLE('',(#299));
#299=FILL_AREA_STYLE_COLOUR('',#300);
#300=COLOUR_RGB('',0.645180702209473,0.678915679454803,0.699999988079071);
#301=MANIFOLD_SOLID_BREP('',#292);
#302=SHAPE_DEFINITION_REPRESENTATION(#474,#303);
#303=SHAPE_REPRESENTATION('Part6',(#304),#469);
#304=AXIS2_PLACEMENT_3D('',#391,#321,#322);
#305=AXIS2_PLACEMENT_3D('',#392,#323,#324);
#306=AXIS2_PLACEMENT_3D('',#401,#329,#330);
#307=AXIS2_PLACEMENT_3D('',#407,#334,#335);
#308=AXIS2_PLACEMENT_3D('',#413,#339,#340);
#309=AXIS2_PLACEMENT_3D('',#416,#343,#344);
#310=AXIS2_PLACEMENT_3D('',#417,#345,#346);
#311=AXIS2_PLACEMENT_3D('',#426,#351,#352);
#312=AXIS2_PLACEMENT_3D('',#432,#356,#357);
#313=AXIS2_PLACEMENT_3D('',#438,#361,#362);
#314=AXIS2_PLACEMENT_3D('',#447,#367,#368);
#315=AXIS2_PLACEMENT_3D('',#453,#372,#373);
#316=AXIS2_PLACEMENT_3D('',#459,#377,#378);
#317=AXIS2_PLACEMENT_3D('',#462,#381,#382);
#318=AXIS2_PLACEMENT_3D('',#465,#385,#386);
#319=AXIS2_PLACEMENT_3D('',#466,#387,#388);
#320=AXIS2_PLACEMENT_3D('',#467,#389,#390);
#321=DIRECTION('',(0.,0.,1.));
#322=DIRECTION('',(1.,0.,0.));
#323=DIRECTION('',(0.,-1.,0.));
#324=DIRECTION('',(0.,0.,-1.));
#325=DIRECTION('',(1.,0.,0.));
#326=DIRECTION('',(0.,0.,1.));
#327=DIRECTION('',(1.,0.,0.));
#328=DIRECTION('',(0.,0.,1.));
#329=DIRECTION('',(1.,0.,0.));
#330=DIRECTION('',(0.,0.,-1.));
#331=DIRECTION('',(0.,1.,0.));
#332=DIRECTION('',(0.,1.,0.));
#333=DIRECTION('',(0.,0.,1.));
#334=DIRECTION('',(0.,1.,0.));
#335=DIRECTION('',(0.,0.,1.));
#336=DIRECTION('',(-1.,0.,0.));
#337=DIRECTION('',(-1.,0.,0.));
#338=DIRECTION('',(0.,0.,1.));
#339=DIRECTION('',(-1.,-5.55111512312578E-17,0.));
#340=DIRECTION('',(5.55111512312578E-17,-1.,0.));
#341=DIRECTION('',(5.55111512312578E-17,-1.,0.));
#342=DIRECTION('',(5.55111512312578E-17,-1.,0.));
#343=DIRECTION('',(0.,0.,1.));
#344=DIRECTION('',(1.,0.,0.));
#345=DIRECTION('',(-1.,8.67361737988404E-17,0.));
#346=DIRECTION('',(-8.67361737988404E-17,-1.,0.));
#347=DIRECTION('',(8.67361737988404E-17,1.,0.));
#348=DIRECTION('',(0.,0.,-1.));
#349=DIRECTION('',(8.67361737988404E-17,1.,0.));
#350=DIRECTION('',(0.,0.,-1.));
#351=DIRECTION('',(8.67361737988403E-17,1.,0.));
#352=DIRECTION('',(-1.,8.67361737988403E-17,0.));
#353=DIRECTION('',(1.,-8.67361737988403E-17,0.));
#354=DIRECTION('',(0.,0.,-1.));
#355=DIRECTION('',(1.,-8.67361737988403E-17,0.));
#356=DIRECTION('',(1.,-8.67361737988404E-17,0.));
#357=DIRECTION('',(8.67361737988404E-17,1.,0.));
#358=DIRECTION('',(-8.67361737988404E-17,-1.,0.));
#359=DIRECTION('',(0.,0.,-1.));
#360=DIRECTION('',(-8.67361737988404E-17,-1.,0.));
#361=DIRECTION('',(0.,1.,0.));
#362=DIRECTION('',(0.,0.,1.));
#363=DIRECTION('',(1.,0.,0.));
#364=DIRECTION('',(0.,0.,-1.));
#365=DIRECTION('',(1.,0.,0.));
#366=DIRECTION('',(0.,0.,-1.));
#367=DIRECTION('',(-1.,0.,0.));
#368=DIRECTION('',(0.,0.,1.));
#369=DIRECTION('',(0.,1.,0.));
#370=DIRECTION('',(0.,0.,-1.));
#371=DIRECTION('',(0.,1.,0.));
#372=DIRECTION('',(0.,-1.,0.));
#373=DIRECTION('',(0.,0.,-1.));
#374=DIRECTION('',(-1.,0.,0.));
#375=DIRECTION('',(0.,0.,-1.));
#376=DIRECTION('',(-1.,0.,0.));
#377=DIRECTION('',(1.,0.,0.));
#378=DIRECTION('',(0.,0.,-1.));
#379=DIRECTION('',(0.,-1.,0.));
#380=DIRECTION('',(0.,-1.,0.));
#381=DIRECTION('',(-8.67361737988403E-17,-1.,0.));
#382=DIRECTION('',(1.,-8.67361737988403E-17,0.));
#383=DIRECTION('',(-1.,8.67361737988403E-17,0.));
#384=DIRECTION('',(-1.,8.67361737988403E-17,0.));
#385=DIRECTION('',(0.,0.,1.));
#386=DIRECTION('',(1.,0.,0.));
#387=DIRECTION('',(0.,0.,1.));
#388=DIRECTION('',(1.,0.,0.));
#389=DIRECTION('',(0.,0.,1.));
#390=DIRECTION('',(1.,0.,0.));
#391=CARTESIAN_POINT('',(0.,0.,0.));
#392=CARTESIAN_POINT('',(-62.5,-62.5,-23.));
#393=CARTESIAN_POINT('',(-62.5,-62.5,0.));
#394=CARTESIAN_POINT('',(-62.5,-62.5,0.));
#395=CARTESIAN_POINT('',(62.5,-62.5,0.));
#396=CARTESIAN_POINT('',(-62.5,-62.5,-23.));
#397=CARTESIAN_POINT('',(-62.5,-62.5,-23.));
#398=CARTESIAN_POINT('',(-62.5,-62.5,-23.));
#399=CARTESIAN_POINT('',(62.5,-62.5,-23.));
#400=CARTESIAN_POINT('',(62.5,-62.5,-23.));
#401=CARTESIAN_POINT('',(62.5,-62.5,-23.));
#402=CARTESIAN_POINT('',(62.5,-62.5,0.));
#403=CARTESIAN_POINT('',(62.5,62.5,0.));
#404=CARTESIAN_POINT('',(62.5,-62.5,-23.));
#405=CARTESIAN_POINT('',(62.5,62.5,-23.));
#406=CARTESIAN_POINT('',(62.5,62.5,-23.));
#407=CARTESIAN_POINT('',(62.5,62.5,-23.));
#408=CARTESIAN_POINT('',(62.5,62.5,0.));
#409=CARTESIAN_POINT('',(-62.5,62.5,0.));
#410=CARTESIAN_POINT('',(62.5,62.5,-23.));
#411=CARTESIAN_POINT('',(-62.5,62.5,-23.));
#412=CARTESIAN_POINT('',(-62.5,62.5,-23.));
#413=CARTESIAN_POINT('',(-62.5,62.5,-23.));
#414=CARTESIAN_POINT('',(-62.5,62.5,0.));
#415=CARTESIAN_POINT('',(-62.5,62.5,-23.));
#416=CARTESIAN_POINT('',(0.,0.,-23.));
#417=CARTESIAN_POINT('',(-40.,-40.,2.));
#418=CARTESIAN_POINT('',(-40.,-40.,0.));
#419=CARTESIAN_POINT('',(-40.,-40.,0.));
#420=CARTESIAN_POINT('',(-40.,40.,0.));
#421=CARTESIAN_POINT('',(-40.,40.,2.));
#422=CARTESIAN_POINT('',(-40.,40.,2.));
#423=CARTESIAN_POINT('',(-40.,-40.,2.));
#424=CARTESIAN_POINT('',(-40.,-40.,2.));
#425=CARTESIAN_POINT('',(-40.,-40.,2.));
#426=CARTESIAN_POINT('',(-40.,40.,2.));
#427=CARTESIAN_POINT('',(-40.,40.,0.));
#428=CARTESIAN_POINT('',(40.,40.,0.));
#429=CARTESIAN_POINT('',(40.,40.,2.));
#430=CARTESIAN_POINT('',(40.,40.,2.));
#431=CARTESIAN_POINT('',(-40.,40.,2.));
#432=CARTESIAN_POINT('',(40.,40.,2.));
#433=CARTESIAN_POINT('',(40.,40.,0.));
#434=CARTESIAN_POINT('',(40.,-40.,0.));
#435=CARTESIAN_POINT('',(40.,-40.,2.));
#436=CARTESIAN_POINT('',(40.,-40.,2.));
#437=CARTESIAN_POINT('',(40.,40.,2.));
#438=CARTESIAN_POINT('',(-87.5,-87.5,2.));
#439=CARTESIAN_POINT('',(-87.5,-87.5,0.));
#440=CARTESIAN_POINT('',(-87.5,-87.5,0.));
#441=CARTESIAN_POINT('',(87.5,-87.5,0.));
#442=CARTESIAN_POINT('',(87.5,-87.5,2.));
#443=CARTESIAN_POINT('',(87.5,-87.5,2.));
#444=CARTESIAN_POINT('',(-87.5,-87.5,2.));
#445=CARTESIAN_POINT('',(-87.5,-87.5,2.));
#446=CARTESIAN_POINT('',(-87.5,-87.5,2.));
#447=CARTESIAN_POINT('',(87.5,-87.5,2.));
#448=CARTESIAN_POINT('',(87.5,-87.5,0.));
#449=CARTESIAN_POINT('',(87.5,87.5,0.));
#450=CARTESIAN_POINT('',(87.5,87.5,2.));
#451=CARTESIAN_POINT('',(87.5,87.5,2.));
#452=CARTESIAN_POINT('',(87.5,-87.5,2.));
#453=CARTESIAN_POINT('',(87.5,87.5,2.));
#454=CARTESIAN_POINT('',(87.5,87.5,0.));
#455=CARTESIAN_POINT('',(-87.5,87.5,0.));
#456=CARTESIAN_POINT('',(-87.5,87.5,2.));
#457=CARTESIAN_POINT('',(-87.5,87.5,2.));
#458=CARTESIAN_POINT('',(87.5,87.5,2.));
#459=CARTESIAN_POINT('',(-87.5,87.5,2.));
#460=CARTESIAN_POINT('',(-87.5,87.5,0.));
#461=CARTESIAN_POINT('',(-87.5,87.5,2.));
#462=CARTESIAN_POINT('',(40.,-40.,2.));
#463=CARTESIAN_POINT('',(40.,-40.,0.));
#464=CARTESIAN_POINT('',(40.,-40.,2.));
#465=CARTESIAN_POINT('',(0.,0.,2.));
#466=CARTESIAN_POINT('',(0.,0.,0.));
#467=CARTESIAN_POINT('',(0.,0.,0.));
#468=MECHANICAL_DESIGN_GEOMETRIC_PRESENTATION_REPRESENTATION('',(#293),
#469);
#469=(
GEOMETRIC_REPRESENTATION_CONTEXT(3)
GLOBAL_UNCERTAINTY_ASSIGNED_CONTEXT((#470))
GLOBAL_UNIT_ASSIGNED_CONTEXT((#473,#472,#471))
REPRESENTATION_CONTEXT('Part6','TOP_LEVEL_ASSEMBLY_PART')
);
#470=UNCERTAINTY_MEASURE_WITH_UNIT(LENGTH_MEASURE(0.005),#473,
'DISTANCE_ACCURACY_VALUE','Maximum Tolerance applied to model');
#471=(
NAMED_UNIT(*)
SI_UNIT($,.STERADIAN.)
SOLID_ANGLE_UNIT()
);
#472=(
NAMED_UNIT(*)
PLANE_ANGLE_UNIT()
SI_UNIT($,.RADIAN.)
);
#473=(
LENGTH_UNIT()
NAMED_UNIT(*)
SI_UNIT(.MILLI.,.METRE.)
);
#474=PRODUCT_DEFINITION_SHAPE('','',#475);
#475=PRODUCT_DEFINITION('','',#477,#476);
#476=PRODUCT_DEFINITION_CONTEXT('',#483,'design');
#477=PRODUCT_DEFINITION_FORMATION_WITH_SPECIFIED_SOURCE('','',#479,
 .NOT_KNOWN.);
#478=PRODUCT_RELATED_PRODUCT_CATEGORY('','',(#479));
#479=PRODUCT('Part6','Part6','Part6',(#481));
#480=PRODUCT_CATEGORY('','');
#481=PRODUCT_CONTEXT('',#483,'mechanical');
#482=APPLICATION_PROTOCOL_DEFINITION('international standard',
'automotive_design',2010,#483);
#483=APPLICATION_CONTEXT(
'core data for automotive mechanical design processes');
ENDSEC;
END-ISO-10303-21;
