ISO-10303-21;
HEADER;
/* Generated by software containing ST-Developer
 * from STEP Tools, Inc. (www.steptools.com) 
 */
/* OPTION: strings as raw bytes, not using required /X/ escapes */

FILE_DESCRIPTION(
/* description */ ('Unknown'),
/* implementation_level */ '2;1');

FILE_NAME(
/* name */ 'SN 804.2 AP',
/* time_stamp */ '2020-09-08T13:36:26+02:00',
/* author */ ('Unknown'),
/* organization */ ('Unknown'),
/* preprocessor_version */ 'ST-DEVELOPER v16.7',
/* originating_system */ 'Solid Edge',
/* authorisation */ 'Unknown');

FILE_SCHEMA (('AUTOMOTIVE_DESIGN {1 0 10303 214 3 1 1}'));
ENDSEC;

DATA;
#10=PROPERTY_DEFINITION_REPRESENTATION(#14,#12);
#11=PROPERTY_DEFINITION_REPRESENTATION(#15,#13);
#12=REPRESENTATION('',(#16),#689);
#13=REPRESENTATION('',(#17),#689);
#14=PROPERTY_DEFINITION('pmi validation property','',#694);
#15=PROPERTY_DEFINITION('pmi validation property','',#694);
#16=VALUE_REPRESENTATION_ITEM('number of annotations',COUNT_MEASURE(0.));
#17=VALUE_REPRESENTATION_ITEM('number of views',COUNT_MEASURE(0.));
#18=SHAPE_REPRESENTATION_RELATIONSHIP('','',#425,#19);
#19=ADVANCED_BREP_SHAPE_REPRESENTATION('',(#423),#689);
#20=TOROIDAL_SURFACE('',#461,11.,1.);
#21=TOROIDAL_SURFACE('',#462,11.,1.);
#22=ELLIPSE('',#446,1.41421356237309,1.);
#23=ELLIPSE('',#447,1.41421356237309,1.);
#24=ELLIPSE('',#449,1.41421356237309,1.);
#25=ELLIPSE('',#451,1.41421356237309,1.);
#26=CYLINDRICAL_SURFACE('',#445,1.);
#27=CYLINDRICAL_SURFACE('',#448,1.);
#28=CYLINDRICAL_SURFACE('',#450,1.);
#29=CYLINDRICAL_SURFACE('',#452,1.);
#30=CYLINDRICAL_SURFACE('',#453,12.);
#31=CYLINDRICAL_SURFACE('',#457,12.);
#32=CIRCLE('',#434,12.);
#33=CIRCLE('',#435,12.);
#34=CIRCLE('',#454,12.);
#35=CIRCLE('',#456,11.);
#36=CIRCLE('',#458,12.);
#37=CIRCLE('',#460,11.);
#38=ORIENTED_EDGE('',*,*,#138,.F.);
#39=ORIENTED_EDGE('',*,*,#139,.F.);
#40=ORIENTED_EDGE('',*,*,#140,.F.);
#41=ORIENTED_EDGE('',*,*,#141,.F.);
#42=ORIENTED_EDGE('',*,*,#142,.F.);
#43=ORIENTED_EDGE('',*,*,#143,.F.);
#44=ORIENTED_EDGE('',*,*,#144,.F.);
#45=ORIENTED_EDGE('',*,*,#145,.F.);
#46=ORIENTED_EDGE('',*,*,#138,.T.);
#47=ORIENTED_EDGE('',*,*,#146,.F.);
#48=ORIENTED_EDGE('',*,*,#147,.F.);
#49=ORIENTED_EDGE('',*,*,#148,.T.);
#50=ORIENTED_EDGE('',*,*,#141,.T.);
#51=ORIENTED_EDGE('',*,*,#149,.F.);
#52=ORIENTED_EDGE('',*,*,#150,.F.);
#53=ORIENTED_EDGE('',*,*,#146,.T.);
#54=ORIENTED_EDGE('',*,*,#140,.T.);
#55=ORIENTED_EDGE('',*,*,#151,.F.);
#56=ORIENTED_EDGE('',*,*,#152,.F.);
#57=ORIENTED_EDGE('',*,*,#149,.T.);
#58=ORIENTED_EDGE('',*,*,#139,.T.);
#59=ORIENTED_EDGE('',*,*,#148,.F.);
#60=ORIENTED_EDGE('',*,*,#153,.F.);
#61=ORIENTED_EDGE('',*,*,#151,.T.);
#62=ORIENTED_EDGE('',*,*,#154,.F.);
#63=ORIENTED_EDGE('',*,*,#155,.F.);
#64=ORIENTED_EDGE('',*,*,#156,.F.);
#65=ORIENTED_EDGE('',*,*,#157,.F.);
#66=ORIENTED_EDGE('',*,*,#147,.T.);
#67=ORIENTED_EDGE('',*,*,#150,.T.);
#68=ORIENTED_EDGE('',*,*,#152,.T.);
#69=ORIENTED_EDGE('',*,*,#153,.T.);
#70=ORIENTED_EDGE('',*,*,#158,.T.);
#71=ORIENTED_EDGE('',*,*,#159,.T.);
#72=ORIENTED_EDGE('',*,*,#142,.T.);
#73=ORIENTED_EDGE('',*,*,#160,.F.);
#74=ORIENTED_EDGE('',*,*,#161,.F.);
#75=ORIENTED_EDGE('',*,*,#162,.T.);
#76=ORIENTED_EDGE('',*,*,#145,.T.);
#77=ORIENTED_EDGE('',*,*,#163,.F.);
#78=ORIENTED_EDGE('',*,*,#164,.F.);
#79=ORIENTED_EDGE('',*,*,#160,.T.);
#80=ORIENTED_EDGE('',*,*,#144,.T.);
#81=ORIENTED_EDGE('',*,*,#165,.F.);
#82=ORIENTED_EDGE('',*,*,#166,.F.);
#83=ORIENTED_EDGE('',*,*,#163,.T.);
#84=ORIENTED_EDGE('',*,*,#143,.T.);
#85=ORIENTED_EDGE('',*,*,#162,.F.);
#86=ORIENTED_EDGE('',*,*,#167,.F.);
#87=ORIENTED_EDGE('',*,*,#165,.T.);
#88=ORIENTED_EDGE('',*,*,#161,.T.);
#89=ORIENTED_EDGE('',*,*,#164,.T.);
#90=ORIENTED_EDGE('',*,*,#166,.T.);
#91=ORIENTED_EDGE('',*,*,#167,.T.);
#92=ORIENTED_EDGE('',*,*,#168,.F.);
#93=ORIENTED_EDGE('',*,*,#169,.T.);
#94=ORIENTED_EDGE('',*,*,#170,.T.);
#95=ORIENTED_EDGE('',*,*,#154,.T.);
#96=ORIENTED_EDGE('',*,*,#171,.F.);
#97=ORIENTED_EDGE('',*,*,#172,.T.);
#98=ORIENTED_EDGE('',*,*,#168,.T.);
#99=ORIENTED_EDGE('',*,*,#157,.T.);
#100=ORIENTED_EDGE('',*,*,#173,.F.);
#101=ORIENTED_EDGE('',*,*,#174,.T.);
#102=ORIENTED_EDGE('',*,*,#171,.T.);
#103=ORIENTED_EDGE('',*,*,#156,.T.);
#104=ORIENTED_EDGE('',*,*,#170,.F.);
#105=ORIENTED_EDGE('',*,*,#175,.T.);
#106=ORIENTED_EDGE('',*,*,#173,.T.);
#107=ORIENTED_EDGE('',*,*,#155,.T.);
#108=ORIENTED_EDGE('',*,*,#176,.T.);
#109=ORIENTED_EDGE('',*,*,#177,.T.);
#110=ORIENTED_EDGE('',*,*,#178,.T.);
#111=ORIENTED_EDGE('',*,*,#179,.T.);
#112=ORIENTED_EDGE('',*,*,#180,.F.);
#113=ORIENTED_EDGE('',*,*,#169,.F.);
#114=ORIENTED_EDGE('',*,*,#181,.F.);
#115=ORIENTED_EDGE('',*,*,#179,.F.);
#116=ORIENTED_EDGE('',*,*,#181,.T.);
#117=ORIENTED_EDGE('',*,*,#172,.F.);
#118=ORIENTED_EDGE('',*,*,#182,.F.);
#119=ORIENTED_EDGE('',*,*,#176,.F.);
#120=ORIENTED_EDGE('',*,*,#180,.T.);
#121=ORIENTED_EDGE('',*,*,#178,.F.);
#122=ORIENTED_EDGE('',*,*,#183,.F.);
#123=ORIENTED_EDGE('',*,*,#175,.F.);
#124=ORIENTED_EDGE('',*,*,#182,.T.);
#125=ORIENTED_EDGE('',*,*,#174,.F.);
#126=ORIENTED_EDGE('',*,*,#183,.T.);
#127=ORIENTED_EDGE('',*,*,#177,.F.);
#128=ORIENTED_EDGE('',*,*,#184,.T.);
#129=ORIENTED_EDGE('',*,*,#159,.F.);
#130=ORIENTED_EDGE('',*,*,#185,.T.);
#131=ORIENTED_EDGE('',*,*,#186,.T.);
#132=ORIENTED_EDGE('',*,*,#158,.F.);
#133=ORIENTED_EDGE('',*,*,#187,.T.);
#134=ORIENTED_EDGE('',*,*,#187,.F.);
#135=ORIENTED_EDGE('',*,*,#186,.F.);
#136=ORIENTED_EDGE('',*,*,#185,.F.);
#137=ORIENTED_EDGE('',*,*,#184,.F.);
#138=EDGE_CURVE('',#188,#189,#222,.T.);
#139=EDGE_CURVE('',#190,#188,#223,.T.);
#140=EDGE_CURVE('',#191,#190,#224,.T.);
#141=EDGE_CURVE('',#189,#191,#225,.T.);
#142=EDGE_CURVE('',#192,#193,#226,.T.);
#143=EDGE_CURVE('',#194,#192,#227,.T.);
#144=EDGE_CURVE('',#195,#194,#228,.T.);
#145=EDGE_CURVE('',#193,#195,#229,.T.);
#146=EDGE_CURVE('',#196,#189,#230,.T.);
#147=EDGE_CURVE('',#197,#196,#231,.T.);
#148=EDGE_CURVE('',#197,#188,#232,.T.);
#149=EDGE_CURVE('',#198,#191,#233,.T.);
#150=EDGE_CURVE('',#196,#198,#234,.T.);
#151=EDGE_CURVE('',#199,#190,#235,.T.);
#152=EDGE_CURVE('',#198,#199,#236,.T.);
#153=EDGE_CURVE('',#199,#197,#237,.T.);
#154=EDGE_CURVE('',#200,#201,#238,.T.);
#155=EDGE_CURVE('',#202,#200,#239,.T.);
#156=EDGE_CURVE('',#203,#202,#240,.T.);
#157=EDGE_CURVE('',#201,#203,#241,.T.);
#158=EDGE_CURVE('',#204,#204,#32,.T.);
#159=EDGE_CURVE('',#205,#205,#33,.T.);
#160=EDGE_CURVE('',#206,#193,#242,.T.);
#161=EDGE_CURVE('',#207,#206,#243,.T.);
#162=EDGE_CURVE('',#207,#192,#244,.T.);
#163=EDGE_CURVE('',#208,#195,#245,.T.);
#164=EDGE_CURVE('',#206,#208,#246,.T.);
#165=EDGE_CURVE('',#209,#194,#247,.T.);
#166=EDGE_CURVE('',#208,#209,#248,.T.);
#167=EDGE_CURVE('',#209,#207,#249,.T.);
#168=EDGE_CURVE('',#210,#201,#250,.T.);
#169=EDGE_CURVE('',#210,#211,#251,.F.);
#170=EDGE_CURVE('',#211,#200,#252,.T.);
#171=EDGE_CURVE('',#212,#203,#253,.T.);
#172=EDGE_CURVE('',#212,#210,#254,.F.);
#173=EDGE_CURVE('',#213,#202,#255,.T.);
#174=EDGE_CURVE('',#213,#212,#256,.F.);
#175=EDGE_CURVE('',#211,#213,#257,.F.);
#176=EDGE_CURVE('',#214,#215,#258,.T.);
#177=EDGE_CURVE('',#215,#216,#259,.T.);
#178=EDGE_CURVE('',#216,#217,#260,.T.);
#179=EDGE_CURVE('',#217,#214,#261,.T.);
#180=EDGE_CURVE('',#211,#217,#22,.T.);
#181=EDGE_CURVE('',#214,#210,#23,.F.);
#182=EDGE_CURVE('',#215,#212,#24,.F.);
#183=EDGE_CURVE('',#213,#216,#25,.T.);
#184=EDGE_CURVE('',#218,#218,#34,.T.);
#185=EDGE_CURVE('',#219,#219,#35,.F.);
#186=EDGE_CURVE('',#220,#220,#36,.T.);
#187=EDGE_CURVE('',#221,#221,#37,.F.);
#188=VERTEX_POINT('',#580);
#189=VERTEX_POINT('',#581);
#190=VERTEX_POINT('',#583);
#191=VERTEX_POINT('',#585);
#192=VERTEX_POINT('',#588);
#193=VERTEX_POINT('',#589);
#194=VERTEX_POINT('',#591);
#195=VERTEX_POINT('',#593);
#196=VERTEX_POINT('',#597);
#197=VERTEX_POINT('',#599);
#198=VERTEX_POINT('',#603);
#199=VERTEX_POINT('',#607);
#200=VERTEX_POINT('',#613);
#201=VERTEX_POINT('',#614);
#202=VERTEX_POINT('',#616);
#203=VERTEX_POINT('',#618);
#204=VERTEX_POINT('',#622);
#205=VERTEX_POINT('',#624);
#206=VERTEX_POINT('',#626);
#207=VERTEX_POINT('',#628);
#208=VERTEX_POINT('',#632);
#209=VERTEX_POINT('',#636);
#210=VERTEX_POINT('',#643);
#211=VERTEX_POINT('',#645);
#212=VERTEX_POINT('',#649);
#213=VERTEX_POINT('',#653);
#214=VERTEX_POINT('',#659);
#215=VERTEX_POINT('',#660);
#216=VERTEX_POINT('',#662);
#217=VERTEX_POINT('',#664);
#218=VERTEX_POINT('',#676);
#219=VERTEX_POINT('',#679);
#220=VERTEX_POINT('',#682);
#221=VERTEX_POINT('',#685);
#222=LINE('',#579,#262);
#223=LINE('',#582,#263);
#224=LINE('',#584,#264);
#225=LINE('',#586,#265);
#226=LINE('',#587,#266);
#227=LINE('',#590,#267);
#228=LINE('',#592,#268);
#229=LINE('',#594,#269);
#230=LINE('',#596,#270);
#231=LINE('',#598,#271);
#232=LINE('',#600,#272);
#233=LINE('',#602,#273);
#234=LINE('',#604,#274);
#235=LINE('',#606,#275);
#236=LINE('',#608,#276);
#237=LINE('',#610,#277);
#238=LINE('',#612,#278);
#239=LINE('',#615,#279);
#240=LINE('',#617,#280);
#241=LINE('',#619,#281);
#242=LINE('',#625,#282);
#243=LINE('',#627,#283);
#244=LINE('',#629,#284);
#245=LINE('',#631,#285);
#246=LINE('',#633,#286);
#247=LINE('',#635,#287);
#248=LINE('',#637,#288);
#249=LINE('',#639,#289);
#250=LINE('',#642,#290);
#251=LINE('',#644,#291);
#252=LINE('',#646,#292);
#253=LINE('',#648,#293);
#254=LINE('',#650,#294);
#255=LINE('',#652,#295);
#256=LINE('',#654,#296);
#257=LINE('',#656,#297);
#258=LINE('',#658,#298);
#259=LINE('',#661,#299);
#260=LINE('',#663,#300);
#261=LINE('',#665,#301);
#262=VECTOR('',#467,1000.);
#263=VECTOR('',#468,1000.);
#264=VECTOR('',#469,1000.);
#265=VECTOR('',#470,1000.);
#266=VECTOR('',#471,1000.);
#267=VECTOR('',#472,1000.);
#268=VECTOR('',#473,1000.);
#269=VECTOR('',#474,1000.);
#270=VECTOR('',#477,1000.);
#271=VECTOR('',#478,1000.);
#272=VECTOR('',#479,1000.);
#273=VECTOR('',#482,1000.);
#274=VECTOR('',#483,1000.);
#275=VECTOR('',#486,1000.);
#276=VECTOR('',#487,1000.);
#277=VECTOR('',#490,1000.);
#278=VECTOR('',#493,1000.);
#279=VECTOR('',#494,1000.);
#280=VECTOR('',#495,1000.);
#281=VECTOR('',#496,1000.);
#282=VECTOR('',#503,1000.);
#283=VECTOR('',#504,1000.);
#284=VECTOR('',#505,1000.);
#285=VECTOR('',#508,1000.);
#286=VECTOR('',#509,1000.);
#287=VECTOR('',#512,1000.);
#288=VECTOR('',#513,1000.);
#289=VECTOR('',#516,1000.);
#290=VECTOR('',#521,1000.);
#291=VECTOR('',#522,1000.);
#292=VECTOR('',#523,1000.);
#293=VECTOR('',#526,1000.);
#294=VECTOR('',#527,1000.);
#295=VECTOR('',#530,1000.);
#296=VECTOR('',#531,1000.);
#297=VECTOR('',#534,1000.);
#298=VECTOR('',#537,1000.);
#299=VECTOR('',#538,1000.);
#300=VECTOR('',#539,1000.);
#301=VECTOR('',#540,1000.);
#302=EDGE_LOOP('',(#38,#39,#40,#41));
#303=EDGE_LOOP('',(#42,#43,#44,#45));
#304=EDGE_LOOP('',(#46,#47,#48,#49));
#305=EDGE_LOOP('',(#50,#51,#52,#53));
#306=EDGE_LOOP('',(#54,#55,#56,#57));
#307=EDGE_LOOP('',(#58,#59,#60,#61));
#308=EDGE_LOOP('',(#62,#63,#64,#65));
#309=EDGE_LOOP('',(#66,#67,#68,#69));
#310=EDGE_LOOP('',(#70));
#311=EDGE_LOOP('',(#71));
#312=EDGE_LOOP('',(#72,#73,#74,#75));
#313=EDGE_LOOP('',(#76,#77,#78,#79));
#314=EDGE_LOOP('',(#80,#81,#82,#83));
#315=EDGE_LOOP('',(#84,#85,#86,#87));
#316=EDGE_LOOP('',(#88,#89,#90,#91));
#317=EDGE_LOOP('',(#92,#93,#94,#95));
#318=EDGE_LOOP('',(#96,#97,#98,#99));
#319=EDGE_LOOP('',(#100,#101,#102,#103));
#320=EDGE_LOOP('',(#104,#105,#106,#107));
#321=EDGE_LOOP('',(#108,#109,#110,#111));
#322=EDGE_LOOP('',(#112,#113,#114,#115));
#323=EDGE_LOOP('',(#116,#117,#118,#119));
#324=EDGE_LOOP('',(#120,#121,#122,#123));
#325=EDGE_LOOP('',(#124,#125,#126,#127));
#326=EDGE_LOOP('',(#128));
#327=EDGE_LOOP('',(#129));
#328=EDGE_LOOP('',(#130));
#329=EDGE_LOOP('',(#131));
#330=EDGE_LOOP('',(#132));
#331=EDGE_LOOP('',(#133));
#332=EDGE_LOOP('',(#134));
#333=EDGE_LOOP('',(#135));
#334=EDGE_LOOP('',(#136));
#335=EDGE_LOOP('',(#137));
#336=FACE_BOUND('',#302,.T.);
#337=FACE_BOUND('',#303,.T.);
#338=FACE_BOUND('',#304,.T.);
#339=FACE_BOUND('',#305,.T.);
#340=FACE_BOUND('',#306,.T.);
#341=FACE_BOUND('',#307,.T.);
#342=FACE_BOUND('',#308,.T.);
#343=FACE_BOUND('',#309,.T.);
#344=FACE_BOUND('',#310,.T.);
#345=FACE_BOUND('',#311,.T.);
#346=FACE_BOUND('',#312,.T.);
#347=FACE_BOUND('',#313,.T.);
#348=FACE_BOUND('',#314,.T.);
#349=FACE_BOUND('',#315,.T.);
#350=FACE_BOUND('',#316,.T.);
#351=FACE_BOUND('',#317,.T.);
#352=FACE_BOUND('',#318,.T.);
#353=FACE_BOUND('',#319,.T.);
#354=FACE_BOUND('',#320,.T.);
#355=FACE_BOUND('',#321,.T.);
#356=FACE_BOUND('',#322,.T.);
#357=FACE_BOUND('',#323,.T.);
#358=FACE_BOUND('',#324,.T.);
#359=FACE_BOUND('',#325,.T.);
#360=FACE_BOUND('',#326,.T.);
#361=FACE_BOUND('',#327,.T.);
#362=FACE_BOUND('',#328,.T.);
#363=FACE_BOUND('',#329,.T.);
#364=FACE_BOUND('',#330,.T.);
#365=FACE_BOUND('',#331,.T.);
#366=FACE_BOUND('',#332,.T.);
#367=FACE_BOUND('',#333,.T.);
#368=FACE_BOUND('',#334,.T.);
#369=FACE_BOUND('',#335,.T.);
#370=PLANE('',#427);
#371=PLANE('',#428);
#372=PLANE('',#429);
#373=PLANE('',#430);
#374=PLANE('',#431);
#375=PLANE('',#432);
#376=PLANE('',#433);
#377=PLANE('',#436);
#378=PLANE('',#437);
#379=PLANE('',#438);
#380=PLANE('',#439);
#381=PLANE('',#440);
#382=PLANE('',#441);
#383=PLANE('',#442);
#384=PLANE('',#443);
#385=PLANE('',#444);
#386=PLANE('',#455);
#387=PLANE('',#459);
#388=ADVANCED_FACE('',(#336,#337),#370,.F.);
#389=ADVANCED_FACE('',(#338),#371,.F.);
#390=ADVANCED_FACE('',(#339),#372,.F.);
#391=ADVANCED_FACE('',(#340),#373,.F.);
#392=ADVANCED_FACE('',(#341),#374,.F.);
#393=ADVANCED_FACE('',(#342,#343),#375,.T.);
#394=ADVANCED_FACE('',(#344,#345,#346),#376,.F.);
#395=ADVANCED_FACE('',(#347),#377,.F.);
#396=ADVANCED_FACE('',(#348),#378,.F.);
#397=ADVANCED_FACE('',(#349),#379,.F.);
#398=ADVANCED_FACE('',(#350),#380,.T.);
#399=ADVANCED_FACE('',(#351),#381,.F.);
#400=ADVANCED_FACE('',(#352),#382,.F.);
#401=ADVANCED_FACE('',(#353),#383,.F.);
#402=ADVANCED_FACE('',(#354),#384,.F.);
#403=ADVANCED_FACE('',(#355),#385,.T.);
#404=ADVANCED_FACE('',(#356),#26,.T.);
#405=ADVANCED_FACE('',(#357),#27,.T.);
#406=ADVANCED_FACE('',(#358),#28,.T.);
#407=ADVANCED_FACE('',(#359),#29,.T.);
#408=ADVANCED_FACE('',(#360,#361),#30,.T.);
#409=ADVANCED_FACE('',(#362),#386,.F.);
#410=ADVANCED_FACE('',(#363,#364),#31,.T.);
#411=ADVANCED_FACE('',(#365),#387,.F.);
#412=ADVANCED_FACE('',(#366,#367),#20,.T.);
#413=ADVANCED_FACE('',(#368,#369),#21,.T.);
#414=CLOSED_SHELL('',(#388,#389,#390,#391,#392,#393,#394,#395,#396,#397,
#398,#399,#400,#401,#402,#403,#404,#405,#406,#407,#408,#409,#410,#411,#412,
#413));
#415=STYLED_ITEM('',(#416),#423);
#416=PRESENTATION_STYLE_ASSIGNMENT((#417));
#417=SURFACE_STYLE_USAGE(.BOTH.,#418);
#418=SURFACE_SIDE_STYLE('',(#419));
#419=SURFACE_STYLE_FILL_AREA(#420);
#420=FILL_AREA_STYLE('',(#421));
#421=FILL_AREA_STYLE_COLOUR('',#422);
#422=COLOUR_RGB('',0.645180702209473,0.678915679454803,0.699999988079071);
#423=MANIFOLD_SOLID_BREP('',#414);
#424=SHAPE_DEFINITION_REPRESENTATION(#694,#425);
#425=SHAPE_REPRESENTATION('SN 804.2 AP',(#426),#689);
#426=AXIS2_PLACEMENT_3D('',#577,#463,#464);
#427=AXIS2_PLACEMENT_3D('',#578,#465,#466);
#428=AXIS2_PLACEMENT_3D('',#595,#475,#476);
#429=AXIS2_PLACEMENT_3D('',#601,#480,#481);
#430=AXIS2_PLACEMENT_3D('',#605,#484,#485);
#431=AXIS2_PLACEMENT_3D('',#609,#488,#489);
#432=AXIS2_PLACEMENT_3D('',#611,#491,#492);
#433=AXIS2_PLACEMENT_3D('',#620,#497,#498);
#434=AXIS2_PLACEMENT_3D('',#621,#499,#500);
#435=AXIS2_PLACEMENT_3D('',#623,#501,#502);
#436=AXIS2_PLACEMENT_3D('',#630,#506,#507);
#437=AXIS2_PLACEMENT_3D('',#634,#510,#511);
#438=AXIS2_PLACEMENT_3D('',#638,#514,#515);
#439=AXIS2_PLACEMENT_3D('',#640,#517,#518);
#440=AXIS2_PLACEMENT_3D('',#641,#519,#520);
#441=AXIS2_PLACEMENT_3D('',#647,#524,#525);
#442=AXIS2_PLACEMENT_3D('',#651,#528,#529);
#443=AXIS2_PLACEMENT_3D('',#655,#532,#533);
#444=AXIS2_PLACEMENT_3D('',#657,#535,#536);
#445=AXIS2_PLACEMENT_3D('',#666,#541,#542);
#446=AXIS2_PLACEMENT_3D('',#667,#543,#544);
#447=AXIS2_PLACEMENT_3D('',#668,#545,#546);
#448=AXIS2_PLACEMENT_3D('',#669,#547,#548);
#449=AXIS2_PLACEMENT_3D('',#670,#549,#550);
#450=AXIS2_PLACEMENT_3D('',#671,#551,#552);
#451=AXIS2_PLACEMENT_3D('',#672,#553,#554);
#452=AXIS2_PLACEMENT_3D('',#673,#555,#556);
#453=AXIS2_PLACEMENT_3D('',#674,#557,#558);
#454=AXIS2_PLACEMENT_3D('',#675,#559,#560);
#455=AXIS2_PLACEMENT_3D('',#677,#561,#562);
#456=AXIS2_PLACEMENT_3D('',#678,#563,#564);
#457=AXIS2_PLACEMENT_3D('',#680,#565,#566);
#458=AXIS2_PLACEMENT_3D('',#681,#567,#568);
#459=AXIS2_PLACEMENT_3D('',#683,#569,#570);
#460=AXIS2_PLACEMENT_3D('',#684,#571,#572);
#461=AXIS2_PLACEMENT_3D('',#686,#573,#574);
#462=AXIS2_PLACEMENT_3D('',#687,#575,#576);
#463=DIRECTION('',(0.,0.,1.));
#464=DIRECTION('',(1.,0.,0.));
#465=DIRECTION('',(0.,0.,1.));
#466=DIRECTION('',(1.,0.,0.));
#467=DIRECTION('',(2.31296463463574E-16,-1.,0.));
#468=DIRECTION('',(-1.,-1.15648231731787E-16,0.));
#469=DIRECTION('',(0.,1.,0.));
#470=DIRECTION('',(1.,1.15648231731787E-16,0.));
#471=DIRECTION('',(1.,0.,0.));
#472=DIRECTION('',(-1.18613571006961E-16,1.,0.));
#473=DIRECTION('',(-1.,0.,0.));
#474=DIRECTION('',(-1.18613571006961E-16,-1.,0.));
#475=DIRECTION('',(1.,2.31296463463574E-16,0.));
#476=DIRECTION('',(-2.31296463463574E-16,1.,0.));
#477=DIRECTION('',(0.,0.,-1.));
#478=DIRECTION('',(2.31296463463574E-16,-1.,0.));
#479=DIRECTION('',(0.,0.,-1.));
#480=DIRECTION('',(-1.15648231731787E-16,1.,0.));
#481=DIRECTION('',(-1.,-1.15648231731787E-16,0.));
#482=DIRECTION('',(0.,0.,-1.));
#483=DIRECTION('',(1.,1.15648231731787E-16,0.));
#484=DIRECTION('',(-1.,0.,0.));
#485=DIRECTION('',(0.,0.,1.));
#486=DIRECTION('',(0.,0.,-1.));
#487=DIRECTION('',(0.,1.,0.));
#488=DIRECTION('',(1.15648231731787E-16,-1.,0.));
#489=DIRECTION('',(1.,1.15648231731787E-16,0.));
#490=DIRECTION('',(-1.,-1.15648231731787E-16,0.));
#491=DIRECTION('',(0.,0.,1.));
#492=DIRECTION('',(1.,0.,0.));
#493=DIRECTION('',(-1.,0.,0.));
#494=DIRECTION('',(0.,1.,0.));
#495=DIRECTION('',(1.,0.,0.));
#496=DIRECTION('',(0.,-1.,0.));
#497=DIRECTION('',(0.,-1.,0.));
#498=DIRECTION('',(0.,0.,-1.));
#499=DIRECTION('',(0.,-1.,0.));
#500=DIRECTION('',(1.,0.,0.));
#501=DIRECTION('',(0.,-1.,0.));
#502=DIRECTION('',(1.,0.,0.));
#503=DIRECTION('',(0.,0.,1.));
#504=DIRECTION('',(1.,0.,0.));
#505=DIRECTION('',(0.,0.,1.));
#506=DIRECTION('',(-1.,1.18613571006961E-16,0.));
#507=DIRECTION('',(-1.18613571006961E-16,-1.,0.));
#508=DIRECTION('',(0.,0.,1.));
#509=DIRECTION('',(-1.18613571006961E-16,-1.,0.));
#510=DIRECTION('',(0.,1.,0.));
#511=DIRECTION('',(0.,0.,1.));
#512=DIRECTION('',(0.,0.,1.));
#513=DIRECTION('',(-1.,0.,0.));
#514=DIRECTION('',(1.,1.18613571006961E-16,0.));
#515=DIRECTION('',(-1.18613571006961E-16,1.,0.));
#516=DIRECTION('',(-1.18613571006961E-16,1.,0.));
#517=DIRECTION('',(0.,0.,-1.));
#518=DIRECTION('',(-1.,0.,0.));
#519=DIRECTION('',(0.,-1.,0.));
#520=DIRECTION('',(0.,0.,-1.));
#521=DIRECTION('',(0.,0.,-1.));
#522=DIRECTION('',(-1.,0.,0.));
#523=DIRECTION('',(0.,0.,-1.));
#524=DIRECTION('',(1.,0.,0.));
#525=DIRECTION('',(0.,0.,-1.));
#526=DIRECTION('',(0.,0.,-1.));
#527=DIRECTION('',(0.,-1.,0.));
#528=DIRECTION('',(0.,1.,0.));
#529=DIRECTION('',(0.,0.,1.));
#530=DIRECTION('',(0.,0.,-1.));
#531=DIRECTION('',(1.,0.,0.));
#532=DIRECTION('',(-1.,0.,0.));
#533=DIRECTION('',(0.,0.,1.));
#534=DIRECTION('',(0.,1.,0.));
#535=DIRECTION('',(0.,0.,1.));
#536=DIRECTION('',(1.,0.,0.));
#537=DIRECTION('',(0.,-1.,0.));
#538=DIRECTION('',(1.,0.,0.));
#539=DIRECTION('',(0.,1.,0.));
#540=DIRECTION('',(-1.,0.,0.));
#541=DIRECTION('',(1.,0.,0.));
#542=DIRECTION('',(0.,0.,-1.));
#543=DIRECTION('',(0.707106781186547,-0.707106781186547,0.));
#544=DIRECTION('',(0.707106781186547,0.707106781186547,0.));
#545=DIRECTION('',(0.707106781186547,0.707106781186547,0.));
#546=DIRECTION('',(0.707106781186547,-0.707106781186547,0.));
#547=DIRECTION('',(0.,1.,0.));
#548=DIRECTION('',(0.,0.,1.));
#549=DIRECTION('',(-0.707106781186547,0.707106781186547,0.));
#550=DIRECTION('',(0.707106781186547,0.707106781186547,0.));
#551=DIRECTION('',(0.,-1.,0.));
#552=DIRECTION('',(0.,0.,-1.));
#553=DIRECTION('',(-0.707106781186547,-0.707106781186547,0.));
#554=DIRECTION('',(0.707106781186547,-0.707106781186547,0.));
#555=DIRECTION('',(-1.,0.,0.));
#556=DIRECTION('',(0.,0.,1.));
#557=DIRECTION('',(0.,-1.,0.));
#558=DIRECTION('',(0.,0.,-1.));
#559=DIRECTION('',(0.,-1.,0.));
#560=DIRECTION('',(0.,0.,-1.));
#561=DIRECTION('',(0.,-1.,0.));
#562=DIRECTION('',(0.,0.,-1.));
#563=DIRECTION('',(0.,-1.,0.));
#564=DIRECTION('',(0.,0.,-1.));
#565=DIRECTION('',(0.,-1.,0.));
#566=DIRECTION('',(0.,0.,-1.));
#567=DIRECTION('',(0.,-1.,0.));
#568=DIRECTION('',(0.,0.,-1.));
#569=DIRECTION('',(0.,-1.,0.));
#570=DIRECTION('',(0.,0.,-1.));
#571=DIRECTION('',(0.,-1.,0.));
#572=DIRECTION('',(0.,0.,-1.));
#573=DIRECTION('',(0.,-1.,0.));
#574=DIRECTION('',(0.,0.,-1.));
#575=DIRECTION('',(0.,-1.,0.));
#576=DIRECTION('',(0.,0.,-1.));
#577=CARTESIAN_POINT('',(0.,0.,0.));
#578=CARTESIAN_POINT('',(0.,0.,0.));
#579=CARTESIAN_POINT('',(-60.,60.,0.));
#580=CARTESIAN_POINT('',(-60.,60.,0.));
#581=CARTESIAN_POINT('',(-60.,-60.,0.));
#582=CARTESIAN_POINT('',(60.,60.,0.));
#583=CARTESIAN_POINT('',(60.,60.,0.));
#584=CARTESIAN_POINT('',(60.,-60.,0.));
#585=CARTESIAN_POINT('',(60.,-60.,0.));
#586=CARTESIAN_POINT('',(-60.,-60.,0.));
#587=CARTESIAN_POINT('',(-58.5,58.5,0.));
#588=CARTESIAN_POINT('',(-58.5,58.5,0.));
#589=CARTESIAN_POINT('',(58.5,58.5,0.));
#590=CARTESIAN_POINT('',(-58.5,-58.5,0.));
#591=CARTESIAN_POINT('',(-58.5,-58.5,0.));
#592=CARTESIAN_POINT('',(58.5,-58.5,0.));
#593=CARTESIAN_POINT('',(58.5,-58.5,0.));
#594=CARTESIAN_POINT('',(58.5,58.5,0.));
#595=CARTESIAN_POINT('',(-60.,60.,5.));
#596=CARTESIAN_POINT('',(-60.,-60.,5.));
#597=CARTESIAN_POINT('',(-60.,-60.,5.));
#598=CARTESIAN_POINT('',(-60.,60.,5.));
#599=CARTESIAN_POINT('',(-60.,60.,5.));
#600=CARTESIAN_POINT('',(-60.,60.,5.));
#601=CARTESIAN_POINT('',(-60.,-60.,5.));
#602=CARTESIAN_POINT('',(60.,-60.,5.));
#603=CARTESIAN_POINT('',(60.,-60.,5.));
#604=CARTESIAN_POINT('',(-60.,-60.,5.));
#605=CARTESIAN_POINT('',(60.,-60.,5.));
#606=CARTESIAN_POINT('',(60.,60.,5.));
#607=CARTESIAN_POINT('',(60.,60.,5.));
#608=CARTESIAN_POINT('',(60.,-60.,5.));
#609=CARTESIAN_POINT('',(60.,60.,5.));
#610=CARTESIAN_POINT('',(60.,60.,5.));
#611=CARTESIAN_POINT('',(0.,0.,5.));
#612=CARTESIAN_POINT('',(42.,42.,5.));
#613=CARTESIAN_POINT('',(42.,42.,5.));
#614=CARTESIAN_POINT('',(-42.,42.,5.));
#615=CARTESIAN_POINT('',(42.,-42.,5.));
#616=CARTESIAN_POINT('',(42.,-42.,5.));
#617=CARTESIAN_POINT('',(-42.,-42.,5.));
#618=CARTESIAN_POINT('',(-42.,-42.,5.));
#619=CARTESIAN_POINT('',(-42.,42.,5.));
#620=CARTESIAN_POINT('',(-58.5,58.5,-50.));
#621=CARTESIAN_POINT('',(25.,58.5,-25.));
#622=CARTESIAN_POINT('',(37.,58.5,-25.));
#623=CARTESIAN_POINT('',(-25.,58.5,-25.));
#624=CARTESIAN_POINT('',(-13.,58.5,-25.));
#625=CARTESIAN_POINT('',(58.5,58.5,-50.));
#626=CARTESIAN_POINT('',(58.5,58.5,-50.));
#627=CARTESIAN_POINT('',(-58.5,58.5,-50.));
#628=CARTESIAN_POINT('',(-58.5,58.5,-50.));
#629=CARTESIAN_POINT('',(-58.5,58.5,-50.));
#630=CARTESIAN_POINT('',(58.5,58.5,-50.));
#631=CARTESIAN_POINT('',(58.5,-58.5,-50.));
#632=CARTESIAN_POINT('',(58.5,-58.5,-50.));
#633=CARTESIAN_POINT('',(58.5,58.5,-50.));
#634=CARTESIAN_POINT('',(58.5,-58.5,-50.));
#635=CARTESIAN_POINT('',(-58.5,-58.5,-50.));
#636=CARTESIAN_POINT('',(-58.5,-58.5,-50.));
#637=CARTESIAN_POINT('',(58.5,-58.5,-50.));
#638=CARTESIAN_POINT('',(-58.5,-58.5,-50.));
#639=CARTESIAN_POINT('',(-58.5,-58.5,-50.));
#640=CARTESIAN_POINT('',(0.,0.,-50.));
#641=CARTESIAN_POINT('',(42.,42.,12.5));
#642=CARTESIAN_POINT('',(-42.,42.,12.5));
#643=CARTESIAN_POINT('',(-42.,42.,11.5));
#644=CARTESIAN_POINT('',(42.,42.,11.5));
#645=CARTESIAN_POINT('',(42.,42.,11.5));
#646=CARTESIAN_POINT('',(42.,42.,12.5));
#647=CARTESIAN_POINT('',(-42.,42.,12.5));
#648=CARTESIAN_POINT('',(-42.,-42.,12.5));
#649=CARTESIAN_POINT('',(-42.,-42.,11.5));
#650=CARTESIAN_POINT('',(-42.,42.,11.5));
#651=CARTESIAN_POINT('',(-42.,-42.,12.5));
#652=CARTESIAN_POINT('',(42.,-42.,12.5));
#653=CARTESIAN_POINT('',(42.,-42.,11.5));
#654=CARTESIAN_POINT('',(-42.,-42.,11.5));
#655=CARTESIAN_POINT('',(42.,-42.,12.5));
#656=CARTESIAN_POINT('',(42.,-42.,11.5));
#657=CARTESIAN_POINT('',(0.,0.,12.5));
#658=CARTESIAN_POINT('',(-41.,-42.,12.5));
#659=CARTESIAN_POINT('',(-41.,41.,12.5));
#660=CARTESIAN_POINT('',(-41.,-41.,12.5));
#661=CARTESIAN_POINT('',(42.,-41.,12.5));
#662=CARTESIAN_POINT('',(41.,-41.,12.5));
#663=CARTESIAN_POINT('',(41.,42.,12.5));
#664=CARTESIAN_POINT('',(41.,41.,12.5));
#665=CARTESIAN_POINT('',(-42.,41.,12.5));
#666=CARTESIAN_POINT('',(0.,41.,11.5));
#667=CARTESIAN_POINT('',(41.,41.,11.5));
#668=CARTESIAN_POINT('',(-41.,41.,11.5));
#669=CARTESIAN_POINT('',(-41.,0.,11.5));
#670=CARTESIAN_POINT('',(-41.,-41.,11.5));
#671=CARTESIAN_POINT('',(41.,0.,11.5));
#672=CARTESIAN_POINT('',(41.,-41.,11.5));
#673=CARTESIAN_POINT('',(0.,-41.,11.5));
#674=CARTESIAN_POINT('',(-25.,88.5,-25.));
#675=CARTESIAN_POINT('',(-25.,87.5,-25.));
#676=CARTESIAN_POINT('',(-25.,87.5,-37.));
#677=CARTESIAN_POINT('',(-25.,88.5,-25.));
#678=CARTESIAN_POINT('',(-25.,88.5,-25.));
#679=CARTESIAN_POINT('',(-25.,88.5,-36.));
#680=CARTESIAN_POINT('',(25.,88.5,-25.));
#681=CARTESIAN_POINT('',(25.,87.5,-25.));
#682=CARTESIAN_POINT('',(25.,87.5,-37.));
#683=CARTESIAN_POINT('',(25.,88.5,-25.));
#684=CARTESIAN_POINT('',(25.,88.5,-25.));
#685=CARTESIAN_POINT('',(25.,88.5,-36.));
#686=CARTESIAN_POINT('',(25.,87.5,-25.));
#687=CARTESIAN_POINT('',(-25.,87.5,-25.));
#688=MECHANICAL_DESIGN_GEOMETRIC_PRESENTATION_REPRESENTATION('',(#415),
#689);
#689=(
GEOMETRIC_REPRESENTATION_CONTEXT(3)
GLOBAL_UNCERTAINTY_ASSIGNED_CONTEXT((#690))
GLOBAL_UNIT_ASSIGNED_CONTEXT((#693,#692,#691))
REPRESENTATION_CONTEXT('SN 804.2 AP','TOP_LEVEL_ASSEMBLY_PART')
);
#690=UNCERTAINTY_MEASURE_WITH_UNIT(LENGTH_MEASURE(0.005),#693,
'DISTANCE_ACCURACY_VALUE','Maximum Tolerance applied to model');
#691=(
NAMED_UNIT(*)
SI_UNIT($,.STERADIAN.)
SOLID_ANGLE_UNIT()
);
#692=(
NAMED_UNIT(*)
PLANE_ANGLE_UNIT()
SI_UNIT($,.RADIAN.)
);
#693=(
LENGTH_UNIT()
NAMED_UNIT(*)
SI_UNIT(.MILLI.,.METRE.)
);
#694=PRODUCT_DEFINITION_SHAPE('','',#695);
#695=PRODUCT_DEFINITION('','',#697,#696);
#696=PRODUCT_DEFINITION_CONTEXT('',#703,'design');
#697=PRODUCT_DEFINITION_FORMATION_WITH_SPECIFIED_SOURCE('','',#699,
 .NOT_KNOWN.);
#698=PRODUCT_RELATED_PRODUCT_CATEGORY('','',(#699));
#699=PRODUCT('SN 804.2 AP','SN 804.2 AP','SN 804.2 AP',(#701));
#700=PRODUCT_CATEGORY('','');
#701=PRODUCT_CONTEXT('',#703,'mechanical');
#702=APPLICATION_PROTOCOL_DEFINITION('international standard',
'automotive_design',2010,#703);
#703=APPLICATION_CONTEXT(
'core data for automotive mechanical design processes');
ENDSEC;
END-ISO-10303-21;
