ISO-10303-21;
HEADER;
/* Generated by software containing ST-Developer
 * from STEP Tools, Inc. (www.steptools.com) 
 */
/* OPTION: strings as raw bytes, not using required /X/ escapes */

FILE_DESCRIPTION(
/* description */ ('Unknown'),
/* implementation_level */ '2;1');

FILE_NAME(
/* name */ 'SN 8400 SHB RD ',
/* time_stamp */ '2021-02-09T13:26:07+01:00',
/* author */ ('Unknown'),
/* organization */ ('Unknown'),
/* preprocessor_version */ 'ST-DEVELOPER v16.7',
/* originating_system */ 'Solid Edge',
/* authorisation */ 'Unknown');

FILE_SCHEMA (('AUTOMOTIVE_DESIGN {1 0 10303 214 3 1 1}'));
ENDSEC;

DATA;
#10=PROPERTY_DEFINITION_REPRESENTATION(#14,#12);
#11=PROPERTY_DEFINITION_REPRESENTATION(#15,#13);
#12=REPRESENTATION('',(#16),#465);
#13=REPRESENTATION('',(#17),#465);
#14=PROPERTY_DEFINITION('pmi validation property','',#470);
#15=PROPERTY_DEFINITION('pmi validation property','',#470);
#16=VALUE_REPRESENTATION_ITEM('number of annotations',COUNT_MEASURE(0.));
#17=VALUE_REPRESENTATION_ITEM('number of views',COUNT_MEASURE(0.));
#18=SHAPE_REPRESENTATION_RELATIONSHIP('','',#276,#19);
#19=ADVANCED_BREP_SHAPE_REPRESENTATION('',(#274),#465);
#20=LINE('',#411,#36);
#21=LINE('',#416,#37);
#22=LINE('',#420,#38);
#23=LINE('',#424,#39);
#24=LINE('',#432,#40);
#25=LINE('',#434,#41);
#26=LINE('',#436,#42);
#27=LINE('',#440,#43);
#28=LINE('',#442,#44);
#29=LINE('',#444,#45);
#30=LINE('',#448,#46);
#31=LINE('',#450,#47);
#32=LINE('',#452,#48);
#33=LINE('',#456,#49);
#34=LINE('',#458,#50);
#35=LINE('',#460,#51);
#36=VECTOR('',#336,1000.);
#37=VECTOR('',#339,1000.);
#38=VECTOR('',#342,1000.);
#39=VECTOR('',#345,1000.);
#40=VECTOR('',#356,1000.);
#41=VECTOR('',#357,1000.);
#42=VECTOR('',#358,1000.);
#43=VECTOR('',#363,1000.);
#44=VECTOR('',#366,1000.);
#45=VECTOR('',#367,1000.);
#46=VECTOR('',#372,1000.);
#47=VECTOR('',#375,1000.);
#48=VECTOR('',#376,1000.);
#49=VECTOR('',#381,1000.);
#50=VECTOR('',#384,1000.);
#51=VECTOR('',#385,1000.);
#52=PLANE('',#285);
#53=PLANE('',#289);
#54=PLANE('',#294);
#55=PLANE('',#297);
#56=PLANE('',#300);
#57=PLANE('',#303);
#58=PLANE('',#306);
#59=PLANE('',#309);
#60=CYLINDRICAL_SURFACE('',#281,66.5316981420765);
#61=CYLINDRICAL_SURFACE('',#296,58.75);
#62=CYLINDRICAL_SURFACE('',#298,9.1);
#63=CYLINDRICAL_SURFACE('',#301,9.1);
#64=CYLINDRICAL_SURFACE('',#304,9.1);
#65=CYLINDRICAL_SURFACE('',#307,9.1);
#66=ORIENTED_EDGE('',*,*,#128,.F.);
#67=ORIENTED_EDGE('',*,*,#129,.T.);
#68=ORIENTED_EDGE('',*,*,#130,.F.);
#69=ORIENTED_EDGE('',*,*,#128,.T.);
#70=ORIENTED_EDGE('',*,*,#131,.F.);
#71=ORIENTED_EDGE('',*,*,#130,.T.);
#72=ORIENTED_EDGE('',*,*,#132,.F.);
#73=ORIENTED_EDGE('',*,*,#131,.T.);
#74=ORIENTED_EDGE('',*,*,#133,.F.);
#75=ORIENTED_EDGE('',*,*,#132,.T.);
#76=ORIENTED_EDGE('',*,*,#134,.T.);
#77=ORIENTED_EDGE('',*,*,#135,.T.);
#78=ORIENTED_EDGE('',*,*,#136,.T.);
#79=ORIENTED_EDGE('',*,*,#137,.T.);
#80=ORIENTED_EDGE('',*,*,#138,.T.);
#81=ORIENTED_EDGE('',*,*,#139,.T.);
#82=ORIENTED_EDGE('',*,*,#140,.T.);
#83=ORIENTED_EDGE('',*,*,#141,.T.);
#84=ORIENTED_EDGE('',*,*,#133,.T.);
#85=ORIENTED_EDGE('',*,*,#142,.F.);
#86=ORIENTED_EDGE('',*,*,#129,.F.);
#87=ORIENTED_EDGE('',*,*,#142,.T.);
#88=ORIENTED_EDGE('',*,*,#134,.F.);
#89=ORIENTED_EDGE('',*,*,#143,.F.);
#90=ORIENTED_EDGE('',*,*,#144,.T.);
#91=ORIENTED_EDGE('',*,*,#145,.T.);
#92=ORIENTED_EDGE('',*,*,#135,.F.);
#93=ORIENTED_EDGE('',*,*,#145,.F.);
#94=ORIENTED_EDGE('',*,*,#146,.T.);
#95=ORIENTED_EDGE('',*,*,#147,.T.);
#96=ORIENTED_EDGE('',*,*,#136,.F.);
#97=ORIENTED_EDGE('',*,*,#147,.F.);
#98=ORIENTED_EDGE('',*,*,#148,.T.);
#99=ORIENTED_EDGE('',*,*,#149,.T.);
#100=ORIENTED_EDGE('',*,*,#137,.F.);
#101=ORIENTED_EDGE('',*,*,#149,.F.);
#102=ORIENTED_EDGE('',*,*,#150,.T.);
#103=ORIENTED_EDGE('',*,*,#151,.T.);
#104=ORIENTED_EDGE('',*,*,#138,.F.);
#105=ORIENTED_EDGE('',*,*,#151,.F.);
#106=ORIENTED_EDGE('',*,*,#152,.T.);
#107=ORIENTED_EDGE('',*,*,#153,.T.);
#108=ORIENTED_EDGE('',*,*,#139,.F.);
#109=ORIENTED_EDGE('',*,*,#153,.F.);
#110=ORIENTED_EDGE('',*,*,#154,.T.);
#111=ORIENTED_EDGE('',*,*,#155,.T.);
#112=ORIENTED_EDGE('',*,*,#140,.F.);
#113=ORIENTED_EDGE('',*,*,#155,.F.);
#114=ORIENTED_EDGE('',*,*,#156,.T.);
#115=ORIENTED_EDGE('',*,*,#157,.T.);
#116=ORIENTED_EDGE('',*,*,#141,.F.);
#117=ORIENTED_EDGE('',*,*,#157,.F.);
#118=ORIENTED_EDGE('',*,*,#158,.T.);
#119=ORIENTED_EDGE('',*,*,#143,.T.);
#120=ORIENTED_EDGE('',*,*,#144,.F.);
#121=ORIENTED_EDGE('',*,*,#158,.F.);
#122=ORIENTED_EDGE('',*,*,#156,.F.);
#123=ORIENTED_EDGE('',*,*,#154,.F.);
#124=ORIENTED_EDGE('',*,*,#152,.F.);
#125=ORIENTED_EDGE('',*,*,#150,.F.);
#126=ORIENTED_EDGE('',*,*,#148,.F.);
#127=ORIENTED_EDGE('',*,*,#146,.F.);
#128=EDGE_CURVE('',#159,#159,#182,.T.);
#129=EDGE_CURVE('',#160,#160,#183,.T.);
#130=EDGE_CURVE('',#161,#161,#184,.T.);
#131=EDGE_CURVE('',#162,#162,#185,.T.);
#132=EDGE_CURVE('',#163,#163,#186,.T.);
#133=EDGE_CURVE('',#164,#164,#187,.T.);
#134=EDGE_CURVE('',#165,#166,#20,.T.);
#135=EDGE_CURVE('',#166,#167,#188,.T.);
#136=EDGE_CURVE('',#167,#168,#21,.T.);
#137=EDGE_CURVE('',#168,#169,#189,.T.);
#138=EDGE_CURVE('',#169,#170,#22,.T.);
#139=EDGE_CURVE('',#170,#171,#190,.T.);
#140=EDGE_CURVE('',#171,#172,#23,.T.);
#141=EDGE_CURVE('',#172,#165,#191,.T.);
#142=EDGE_CURVE('',#173,#173,#192,.T.);
#143=EDGE_CURVE('',#174,#165,#24,.T.);
#144=EDGE_CURVE('',#174,#175,#25,.T.);
#145=EDGE_CURVE('',#175,#166,#26,.T.);
#146=EDGE_CURVE('',#175,#176,#193,.T.);
#147=EDGE_CURVE('',#176,#167,#27,.T.);
#148=EDGE_CURVE('',#176,#177,#28,.T.);
#149=EDGE_CURVE('',#177,#168,#29,.T.);
#150=EDGE_CURVE('',#177,#178,#194,.T.);
#151=EDGE_CURVE('',#178,#169,#30,.T.);
#152=EDGE_CURVE('',#178,#179,#31,.T.);
#153=EDGE_CURVE('',#179,#170,#32,.T.);
#154=EDGE_CURVE('',#179,#180,#195,.T.);
#155=EDGE_CURVE('',#180,#171,#33,.T.);
#156=EDGE_CURVE('',#180,#181,#34,.T.);
#157=EDGE_CURVE('',#181,#172,#35,.T.);
#158=EDGE_CURVE('',#181,#174,#196,.T.);
#159=VERTEX_POINT('',#395);
#160=VERTEX_POINT('',#397);
#161=VERTEX_POINT('',#400);
#162=VERTEX_POINT('',#403);
#163=VERTEX_POINT('',#406);
#164=VERTEX_POINT('',#409);
#165=VERTEX_POINT('',#412);
#166=VERTEX_POINT('',#413);
#167=VERTEX_POINT('',#415);
#168=VERTEX_POINT('',#417);
#169=VERTEX_POINT('',#419);
#170=VERTEX_POINT('',#421);
#171=VERTEX_POINT('',#423);
#172=VERTEX_POINT('',#425);
#173=VERTEX_POINT('',#429);
#174=VERTEX_POINT('',#433);
#175=VERTEX_POINT('',#435);
#176=VERTEX_POINT('',#439);
#177=VERTEX_POINT('',#443);
#178=VERTEX_POINT('',#447);
#179=VERTEX_POINT('',#451);
#180=VERTEX_POINT('',#455);
#181=VERTEX_POINT('',#459);
#182=CIRCLE('',#279,66.5316981420765);
#183=CIRCLE('',#280,58.75);
#184=CIRCLE('',#282,66.5316981420765);
#185=CIRCLE('',#284,44.215);
#186=CIRCLE('',#286,40.775);
#187=CIRCLE('',#288,20.);
#188=CIRCLE('',#290,9.1);
#189=CIRCLE('',#291,9.1);
#190=CIRCLE('',#292,9.1);
#191=CIRCLE('',#293,9.1);
#192=CIRCLE('',#295,58.75);
#193=CIRCLE('',#299,9.1);
#194=CIRCLE('',#302,9.1);
#195=CIRCLE('',#305,9.1);
#196=CIRCLE('',#308,9.1);
#197=EDGE_LOOP('',(#66));
#198=EDGE_LOOP('',(#67));
#199=EDGE_LOOP('',(#68));
#200=EDGE_LOOP('',(#69));
#201=EDGE_LOOP('',(#70));
#202=EDGE_LOOP('',(#71));
#203=EDGE_LOOP('',(#72));
#204=EDGE_LOOP('',(#73));
#205=EDGE_LOOP('',(#74));
#206=EDGE_LOOP('',(#75));
#207=EDGE_LOOP('',(#76,#77,#78,#79,#80,#81,#82,#83));
#208=EDGE_LOOP('',(#84));
#209=EDGE_LOOP('',(#85));
#210=EDGE_LOOP('',(#86));
#211=EDGE_LOOP('',(#87));
#212=EDGE_LOOP('',(#88,#89,#90,#91));
#213=EDGE_LOOP('',(#92,#93,#94,#95));
#214=EDGE_LOOP('',(#96,#97,#98,#99));
#215=EDGE_LOOP('',(#100,#101,#102,#103));
#216=EDGE_LOOP('',(#104,#105,#106,#107));
#217=EDGE_LOOP('',(#108,#109,#110,#111));
#218=EDGE_LOOP('',(#112,#113,#114,#115));
#219=EDGE_LOOP('',(#116,#117,#118,#119));
#220=EDGE_LOOP('',(#120,#121,#122,#123,#124,#125,#126,#127));
#221=FACE_BOUND('',#197,.T.);
#222=FACE_BOUND('',#198,.T.);
#223=FACE_BOUND('',#199,.T.);
#224=FACE_BOUND('',#200,.T.);
#225=FACE_BOUND('',#201,.T.);
#226=FACE_BOUND('',#202,.T.);
#227=FACE_BOUND('',#203,.T.);
#228=FACE_BOUND('',#204,.T.);
#229=FACE_BOUND('',#205,.T.);
#230=FACE_BOUND('',#206,.T.);
#231=FACE_BOUND('',#207,.T.);
#232=FACE_BOUND('',#208,.T.);
#233=FACE_BOUND('',#209,.T.);
#234=FACE_BOUND('',#210,.T.);
#235=FACE_BOUND('',#211,.T.);
#236=FACE_BOUND('',#212,.T.);
#237=FACE_BOUND('',#213,.T.);
#238=FACE_BOUND('',#214,.T.);
#239=FACE_BOUND('',#215,.T.);
#240=FACE_BOUND('',#216,.T.);
#241=FACE_BOUND('',#217,.T.);
#242=FACE_BOUND('',#218,.T.);
#243=FACE_BOUND('',#219,.T.);
#244=FACE_BOUND('',#220,.T.);
#245=CONICAL_SURFACE('',#278,58.75,0.999688042836857);
#246=CONICAL_SURFACE('',#283,66.5316981420765,1.07743468808342);
#247=CONICAL_SURFACE('',#287,40.775,1.3805848843677);
#248=ADVANCED_FACE('',(#221,#222),#245,.T.);
#249=ADVANCED_FACE('',(#223,#224),#60,.T.);
#250=ADVANCED_FACE('',(#225,#226),#246,.T.);
#251=ADVANCED_FACE('',(#227,#228),#52,.F.);
#252=ADVANCED_FACE('',(#229,#230),#247,.F.);
#253=ADVANCED_FACE('',(#231,#232),#53,.F.);
#254=ADVANCED_FACE('',(#233),#54,.F.);
#255=ADVANCED_FACE('',(#234,#235),#61,.T.);
#256=ADVANCED_FACE('',(#236),#55,.T.);
#257=ADVANCED_FACE('',(#237),#62,.F.);
#258=ADVANCED_FACE('',(#238),#56,.T.);
#259=ADVANCED_FACE('',(#239),#63,.F.);
#260=ADVANCED_FACE('',(#240),#57,.T.);
#261=ADVANCED_FACE('',(#241),#64,.F.);
#262=ADVANCED_FACE('',(#242),#58,.T.);
#263=ADVANCED_FACE('',(#243),#65,.F.);
#264=ADVANCED_FACE('',(#244),#59,.F.);
#265=CLOSED_SHELL('',(#248,#249,#250,#251,#252,#253,#254,#255,#256,#257,
#258,#259,#260,#261,#262,#263,#264));
#266=STYLED_ITEM('',(#267),#274);
#267=PRESENTATION_STYLE_ASSIGNMENT((#268));
#268=SURFACE_STYLE_USAGE(.BOTH.,#269);
#269=SURFACE_SIDE_STYLE('',(#270));
#270=SURFACE_STYLE_FILL_AREA(#271);
#271=FILL_AREA_STYLE('',(#272));
#272=FILL_AREA_STYLE_COLOUR('',#273);
#273=COLOUR_RGB('',0.645180702209473,0.678915679454803,0.699999988079071);
#274=MANIFOLD_SOLID_BREP('',#265);
#275=SHAPE_DEFINITION_REPRESENTATION(#470,#276);
#276=SHAPE_REPRESENTATION('SN 8400 SLB RD ',(#277),#465);
#277=AXIS2_PLACEMENT_3D('',#392,#310,#311);
#278=AXIS2_PLACEMENT_3D('',#393,#312,#313);
#279=AXIS2_PLACEMENT_3D('',#394,#314,#315);
#280=AXIS2_PLACEMENT_3D('',#396,#316,#317);
#281=AXIS2_PLACEMENT_3D('',#398,#318,#319);
#282=AXIS2_PLACEMENT_3D('',#399,#320,#321);
#283=AXIS2_PLACEMENT_3D('',#401,#322,#323);
#284=AXIS2_PLACEMENT_3D('',#402,#324,#325);
#285=AXIS2_PLACEMENT_3D('',#404,#326,#327);
#286=AXIS2_PLACEMENT_3D('',#405,#328,#329);
#287=AXIS2_PLACEMENT_3D('',#407,#330,#331);
#288=AXIS2_PLACEMENT_3D('',#408,#332,#333);
#289=AXIS2_PLACEMENT_3D('',#410,#334,#335);
#290=AXIS2_PLACEMENT_3D('',#414,#337,#338);
#291=AXIS2_PLACEMENT_3D('',#418,#340,#341);
#292=AXIS2_PLACEMENT_3D('',#422,#343,#344);
#293=AXIS2_PLACEMENT_3D('',#426,#346,#347);
#294=AXIS2_PLACEMENT_3D('',#427,#348,#349);
#295=AXIS2_PLACEMENT_3D('',#428,#350,#351);
#296=AXIS2_PLACEMENT_3D('',#430,#352,#353);
#297=AXIS2_PLACEMENT_3D('',#431,#354,#355);
#298=AXIS2_PLACEMENT_3D('',#437,#359,#360);
#299=AXIS2_PLACEMENT_3D('',#438,#361,#362);
#300=AXIS2_PLACEMENT_3D('',#441,#364,#365);
#301=AXIS2_PLACEMENT_3D('',#445,#368,#369);
#302=AXIS2_PLACEMENT_3D('',#446,#370,#371);
#303=AXIS2_PLACEMENT_3D('',#449,#373,#374);
#304=AXIS2_PLACEMENT_3D('',#453,#377,#378);
#305=AXIS2_PLACEMENT_3D('',#454,#379,#380);
#306=AXIS2_PLACEMENT_3D('',#457,#382,#383);
#307=AXIS2_PLACEMENT_3D('',#461,#386,#387);
#308=AXIS2_PLACEMENT_3D('',#462,#388,#389);
#309=AXIS2_PLACEMENT_3D('',#463,#390,#391);
#310=DIRECTION('',(0.,0.,1.));
#311=DIRECTION('',(1.,0.,0.));
#312=DIRECTION('',(0.,0.,1.));
#313=DIRECTION('',(1.,0.,0.));
#314=DIRECTION('',(0.,0.,1.));
#315=DIRECTION('',(1.,0.,0.));
#316=DIRECTION('',(0.,0.,1.));
#317=DIRECTION('',(1.,0.,0.));
#318=DIRECTION('',(0.,0.,1.));
#319=DIRECTION('',(1.,0.,0.));
#320=DIRECTION('',(0.,0.,1.));
#321=DIRECTION('',(1.,0.,0.));
#322=DIRECTION('',(0.,0.,-1.));
#323=DIRECTION('',(-1.,0.,0.));
#324=DIRECTION('',(0.,0.,1.));
#325=DIRECTION('',(1.,0.,0.));
#326=DIRECTION('',(0.,0.,-1.));
#327=DIRECTION('',(-1.,0.,0.));
#328=DIRECTION('',(0.,0.,1.));
#329=DIRECTION('',(1.,0.,0.));
#330=DIRECTION('',(0.,0.,1.));
#331=DIRECTION('',(1.,0.,0.));
#332=DIRECTION('',(0.,0.,1.));
#333=DIRECTION('',(1.,0.,0.));
#334=DIRECTION('',(0.,0.,-1.));
#335=DIRECTION('',(-1.,0.,0.));
#336=DIRECTION('',(1.,0.,0.));
#337=DIRECTION('',(0.,0.,-1.));
#338=DIRECTION('',(-1.,0.,0.));
#339=DIRECTION('',(0.,-1.,0.));
#340=DIRECTION('',(0.,0.,-1.));
#341=DIRECTION('',(1.,0.,0.));
#342=DIRECTION('',(-1.,0.,0.));
#343=DIRECTION('',(0.,0.,-1.));
#344=DIRECTION('',(1.,0.,0.));
#345=DIRECTION('',(0.,1.,0.));
#346=DIRECTION('',(0.,0.,-1.));
#347=DIRECTION('',(1.,0.,0.));
#348=DIRECTION('',(0.,0.,1.));
#349=DIRECTION('',(1.,0.,0.));
#350=DIRECTION('',(0.,0.,1.));
#351=DIRECTION('',(1.,0.,0.));
#352=DIRECTION('',(0.,0.,1.));
#353=DIRECTION('',(1.,0.,0.));
#354=DIRECTION('',(0.,-1.,0.));
#355=DIRECTION('',(0.,0.,-1.));
#356=DIRECTION('',(0.,0.,1.));
#357=DIRECTION('',(1.,0.,0.));
#358=DIRECTION('',(0.,0.,1.));
#359=DIRECTION('',(0.,0.,1.));
#360=DIRECTION('',(1.,0.,0.));
#361=DIRECTION('',(0.,0.,-1.));
#362=DIRECTION('',(-1.,0.,0.));
#363=DIRECTION('',(0.,0.,1.));
#364=DIRECTION('',(-1.,0.,0.));
#365=DIRECTION('',(0.,0.,1.));
#366=DIRECTION('',(0.,-1.,0.));
#367=DIRECTION('',(0.,0.,1.));
#368=DIRECTION('',(0.,0.,1.));
#369=DIRECTION('',(1.,0.,0.));
#370=DIRECTION('',(0.,0.,-1.));
#371=DIRECTION('',(1.,0.,0.));
#372=DIRECTION('',(0.,0.,1.));
#373=DIRECTION('',(0.,1.,0.));
#374=DIRECTION('',(0.,0.,1.));
#375=DIRECTION('',(-1.,0.,0.));
#376=DIRECTION('',(0.,0.,1.));
#377=DIRECTION('',(0.,0.,1.));
#378=DIRECTION('',(1.,0.,0.));
#379=DIRECTION('',(0.,0.,-1.));
#380=DIRECTION('',(1.,0.,0.));
#381=DIRECTION('',(0.,0.,1.));
#382=DIRECTION('',(1.,0.,0.));
#383=DIRECTION('',(0.,0.,-1.));
#384=DIRECTION('',(0.,1.,0.));
#385=DIRECTION('',(0.,0.,1.));
#386=DIRECTION('',(0.,0.,1.));
#387=DIRECTION('',(1.,0.,0.));
#388=DIRECTION('',(0.,0.,-1.));
#389=DIRECTION('',(1.,0.,0.));
#390=DIRECTION('',(0.,0.,-1.));
#391=DIRECTION('',(-1.,0.,0.));
#392=CARTESIAN_POINT('',(0.,0.,0.));
#393=CARTESIAN_POINT('',(0.,0.,10.));
#394=CARTESIAN_POINT('',(0.,0.,15.));
#395=CARTESIAN_POINT('',(66.5316981420765,0.,15.));
#396=CARTESIAN_POINT('',(0.,0.,10.));
#397=CARTESIAN_POINT('',(58.75,0.,10.));
#398=CARTESIAN_POINT('',(0.,0.,53.77));
#399=CARTESIAN_POINT('',(0.,0.,41.77));
#400=CARTESIAN_POINT('',(66.5316981420765,0.,41.77));
#401=CARTESIAN_POINT('',(0.,0.,41.77));
#402=CARTESIAN_POINT('',(0.,0.,53.77));
#403=CARTESIAN_POINT('',(44.215,0.,53.77));
#404=CARTESIAN_POINT('',(44.215,0.,53.77));
#405=CARTESIAN_POINT('',(0.,0.,53.77));
#406=CARTESIAN_POINT('',(40.775,0.,53.77));
#407=CARTESIAN_POINT('',(0.,0.,53.77));
#408=CARTESIAN_POINT('',(0.,0.,49.77));
#409=CARTESIAN_POINT('',(20.,0.,49.77));
#410=CARTESIAN_POINT('',(0.,0.,49.77));
#411=CARTESIAN_POINT('',(2.2,11.3,49.77));
#412=CARTESIAN_POINT('',(-2.2,11.3,49.77));
#413=CARTESIAN_POINT('',(2.2,11.3,49.77));
#414=CARTESIAN_POINT('',(2.2,2.2,49.77));
#415=CARTESIAN_POINT('',(11.3,2.2,49.77));
#416=CARTESIAN_POINT('',(11.3,-2.2,49.77));
#417=CARTESIAN_POINT('',(11.3,-2.2,49.77));
#418=CARTESIAN_POINT('',(2.2,-2.2,49.77));
#419=CARTESIAN_POINT('',(2.2,-11.3,49.77));
#420=CARTESIAN_POINT('',(-2.2,-11.3,49.77));
#421=CARTESIAN_POINT('',(-2.2,-11.3,49.77));
#422=CARTESIAN_POINT('',(-2.2,-2.2,49.77));
#423=CARTESIAN_POINT('',(-11.3,-2.2,49.77));
#424=CARTESIAN_POINT('',(-11.3,2.2,49.77));
#425=CARTESIAN_POINT('',(-11.3,2.2,49.77));
#426=CARTESIAN_POINT('',(-2.2,2.2,49.77));
#427=CARTESIAN_POINT('',(0.,0.,0.));
#428=CARTESIAN_POINT('',(0.,0.,0.));
#429=CARTESIAN_POINT('',(58.75,0.,0.));
#430=CARTESIAN_POINT('',(0.,0.,53.77));
#431=CARTESIAN_POINT('',(2.2,11.3,47.77));
#432=CARTESIAN_POINT('',(-2.2,11.3,47.77));
#433=CARTESIAN_POINT('',(-2.2,11.3,47.77));
#434=CARTESIAN_POINT('',(2.2,11.3,47.77));
#435=CARTESIAN_POINT('',(2.2,11.3,47.77));
#436=CARTESIAN_POINT('',(2.2,11.3,47.77));
#437=CARTESIAN_POINT('',(2.2,2.2,47.77));
#438=CARTESIAN_POINT('',(2.2,2.2,47.77));
#439=CARTESIAN_POINT('',(11.3,2.2,47.77));
#440=CARTESIAN_POINT('',(11.3,2.2,47.77));
#441=CARTESIAN_POINT('',(11.3,-2.2,47.77));
#442=CARTESIAN_POINT('',(11.3,-2.2,47.77));
#443=CARTESIAN_POINT('',(11.3,-2.2,47.77));
#444=CARTESIAN_POINT('',(11.3,-2.2,47.77));
#445=CARTESIAN_POINT('',(2.2,-2.2,47.77));
#446=CARTESIAN_POINT('',(2.2,-2.2,47.77));
#447=CARTESIAN_POINT('',(2.2,-11.3,47.77));
#448=CARTESIAN_POINT('',(2.2,-11.3,47.77));
#449=CARTESIAN_POINT('',(-2.2,-11.3,47.77));
#450=CARTESIAN_POINT('',(-2.2,-11.3,47.77));
#451=CARTESIAN_POINT('',(-2.2,-11.3,47.77));
#452=CARTESIAN_POINT('',(-2.2,-11.3,47.77));
#453=CARTESIAN_POINT('',(-2.2,-2.2,47.77));
#454=CARTESIAN_POINT('',(-2.2,-2.2,47.77));
#455=CARTESIAN_POINT('',(-11.3,-2.2,47.77));
#456=CARTESIAN_POINT('',(-11.3,-2.2,47.77));
#457=CARTESIAN_POINT('',(-11.3,2.2,47.77));
#458=CARTESIAN_POINT('',(-11.3,2.2,47.77));
#459=CARTESIAN_POINT('',(-11.3,2.2,47.77));
#460=CARTESIAN_POINT('',(-11.3,2.2,47.77));
#461=CARTESIAN_POINT('',(-2.2,2.2,47.77));
#462=CARTESIAN_POINT('',(-2.2,2.2,47.77));
#463=CARTESIAN_POINT('',(2.2,2.2,47.77));
#464=MECHANICAL_DESIGN_GEOMETRIC_PRESENTATION_REPRESENTATION('',(#266),
#465);
#465=(
GEOMETRIC_REPRESENTATION_CONTEXT(3)
GLOBAL_UNCERTAINTY_ASSIGNED_CONTEXT((#466))
GLOBAL_UNIT_ASSIGNED_CONTEXT((#469,#468,#467))
REPRESENTATION_CONTEXT('SN 8400 SLB RD ','TOP_LEVEL_ASSEMBLY_PART')
);
#466=UNCERTAINTY_MEASURE_WITH_UNIT(LENGTH_MEASURE(0.005),#469,
'DISTANCE_ACCURACY_VALUE','Maximum Tolerance applied to model');
#467=(
NAMED_UNIT(*)
SI_UNIT($,.STERADIAN.)
SOLID_ANGLE_UNIT()
);
#468=(
NAMED_UNIT(*)
PLANE_ANGLE_UNIT()
SI_UNIT($,.RADIAN.)
);
#469=(
LENGTH_UNIT()
NAMED_UNIT(*)
SI_UNIT(.MILLI.,.METRE.)
);
#470=PRODUCT_DEFINITION_SHAPE('','',#471);
#471=PRODUCT_DEFINITION('','',#473,#472);
#472=PRODUCT_DEFINITION_CONTEXT('',#479,'design');
#473=PRODUCT_DEFINITION_FORMATION_WITH_SPECIFIED_SOURCE('','',#475,
 .NOT_KNOWN.);
#474=PRODUCT_RELATED_PRODUCT_CATEGORY('','',(#475));
#475=PRODUCT('SN 8400 SLB RD ','SN 8400 SLB RD ','SN 8400 SLB RD ',(#477));
#476=PRODUCT_CATEGORY('','');
#477=PRODUCT_CONTEXT('',#479,'mechanical');
#478=APPLICATION_PROTOCOL_DEFINITION('international standard',
'automotive_design',2010,#479);
#479=APPLICATION_CONTEXT(
'core data for automotive mechanical design processes');
ENDSEC;
END-ISO-10303-21;
