ISO-10303-21;
HEADER;
/* Generated by software containing ST-Developer
 * from STEP Tools, Inc. (www.steptools.com) 
 */
/* OPTION: strings as raw bytes, not using required /X/ escapes */

FILE_DESCRIPTION(
/* description */ ('Unknown'),
/* implementation_level */ '2;1');

FILE_NAME(
/* name */ 'SN 8627 LED ',
/* time_stamp */ '2018-11-14T09:28:14+01:00',
/* author */ ('Unknown'),
/* organization */ ('Unknown'),
/* preprocessor_version */ 'ST-DEVELOPER v16.7',
/* originating_system */ 'DEX',
/* authorisation */ $);

FILE_SCHEMA (('AUTOMOTIVE_DESIGN {1 0 10303 214 3 1 1}'));
ENDSEC;

DATA;
#10=PROPERTY_DEFINITION_REPRESENTATION(#14,#12);
#11=PROPERTY_DEFINITION_REPRESENTATION(#15,#13);
#12=REPRESENTATION('',(#16),#403);
#13=REPRESENTATION('',(#17),#403);
#14=PROPERTY_DEFINITION('pmi validation property','',#408);
#15=PROPERTY_DEFINITION('pmi validation property','',#408);
#16=VALUE_REPRESENTATION_ITEM('number of annotations',COUNT_MEASURE(0.));
#17=VALUE_REPRESENTATION_ITEM('number of views',COUNT_MEASURE(0.));
#18=SHAPE_REPRESENTATION_RELATIONSHIP('','',#231,#19);
#19=ADVANCED_BREP_SHAPE_REPRESENTATION('',(#229),#403);
#20=CONICAL_SURFACE('',#263,0.292529642594497,0.0111786274606131);
#21=CYLINDRICAL_SURFACE('',#242,213.5);
#22=CYLINDRICAL_SURFACE('',#248,216.);
#23=CYLINDRICAL_SURFACE('',#253,211.5);
#24=CYLINDRICAL_SURFACE('',#265,222.5);
#25=PLANE('',#238);
#26=PLANE('',#246);
#27=PLANE('',#257);
#28=PLANE('',#264);
#29=PLANE('',#268);
#30=PLANE('',#269);
#31=TOROIDAL_SURFACE('',#236,222.500000000033,15.);
#32=TOROIDAL_SURFACE('',#240,214.,0.5);
#33=TOROIDAL_SURFACE('',#244,214.,0.5);
#34=TOROIDAL_SURFACE('',#250,213.,1.5);
#35=TOROIDAL_SURFACE('',#255,213.,1.5);
#36=TOROIDAL_SURFACE('',#259,222.500000000033,13.5);
#37=ORIENTED_EDGE('',*,*,#73,.T.);
#38=ORIENTED_EDGE('',*,*,#74,.F.);
#39=ORIENTED_EDGE('',*,*,#75,.T.);
#40=ORIENTED_EDGE('',*,*,#73,.F.);
#41=ORIENTED_EDGE('',*,*,#76,.T.);
#42=ORIENTED_EDGE('',*,*,#75,.F.);
#43=ORIENTED_EDGE('',*,*,#77,.T.);
#44=ORIENTED_EDGE('',*,*,#76,.F.);
#45=ORIENTED_EDGE('',*,*,#78,.T.);
#46=ORIENTED_EDGE('',*,*,#77,.F.);
#47=ORIENTED_EDGE('',*,*,#79,.T.);
#48=ORIENTED_EDGE('',*,*,#78,.F.);
#49=ORIENTED_EDGE('',*,*,#80,.T.);
#50=ORIENTED_EDGE('',*,*,#79,.F.);
#51=ORIENTED_EDGE('',*,*,#81,.F.);
#52=ORIENTED_EDGE('',*,*,#80,.F.);
#53=ORIENTED_EDGE('',*,*,#82,.T.);
#54=ORIENTED_EDGE('',*,*,#83,.F.);
#55=ORIENTED_EDGE('',*,*,#84,.T.);
#56=ORIENTED_EDGE('',*,*,#82,.F.);
#57=ORIENTED_EDGE('',*,*,#85,.T.);
#58=ORIENTED_EDGE('',*,*,#84,.F.);
#59=ORIENTED_EDGE('',*,*,#86,.T.);
#60=ORIENTED_EDGE('',*,*,#85,.F.);
#61=ORIENTED_EDGE('',*,*,#87,.T.);
#62=ORIENTED_EDGE('',*,*,#86,.F.);
#63=ORIENTED_EDGE('',*,*,#88,.T.);
#64=ORIENTED_EDGE('',*,*,#87,.F.);
#65=ORIENTED_EDGE('',*,*,#74,.T.);
#66=ORIENTED_EDGE('',*,*,#88,.F.);
#67=ORIENTED_EDGE('',*,*,#83,.T.);
#68=ORIENTED_EDGE('',*,*,#89,.T.);
#69=ORIENTED_EDGE('',*,*,#90,.F.);
#70=ORIENTED_EDGE('',*,*,#89,.F.);
#71=ORIENTED_EDGE('',*,*,#81,.T.);
#72=ORIENTED_EDGE('',*,*,#90,.T.);
#73=EDGE_CURVE('',#91,#91,#109,.T.);
#74=EDGE_CURVE('',#92,#92,#110,.T.);
#75=EDGE_CURVE('',#93,#93,#111,.T.);
#76=EDGE_CURVE('',#94,#94,#112,.T.);
#77=EDGE_CURVE('',#95,#95,#113,.T.);
#78=EDGE_CURVE('',#96,#96,#114,.T.);
#79=EDGE_CURVE('',#97,#97,#115,.T.);
#80=EDGE_CURVE('',#98,#98,#116,.T.);
#81=EDGE_CURVE('',#99,#99,#117,.F.);
#82=EDGE_CURVE('',#100,#100,#118,.T.);
#83=EDGE_CURVE('',#101,#101,#119,.T.);
#84=EDGE_CURVE('',#102,#102,#120,.T.);
#85=EDGE_CURVE('',#103,#103,#121,.T.);
#86=EDGE_CURVE('',#104,#104,#122,.T.);
#87=EDGE_CURVE('',#105,#105,#123,.T.);
#88=EDGE_CURVE('',#106,#106,#124,.T.);
#89=EDGE_CURVE('',#107,#107,#125,.T.);
#90=EDGE_CURVE('',#108,#108,#126,.T.);
#91=VERTEX_POINT('',#349);
#92=VERTEX_POINT('',#351);
#93=VERTEX_POINT('',#354);
#94=VERTEX_POINT('',#357);
#95=VERTEX_POINT('',#360);
#96=VERTEX_POINT('',#363);
#97=VERTEX_POINT('',#366);
#98=VERTEX_POINT('',#369);
#99=VERTEX_POINT('',#372);
#100=VERTEX_POINT('',#375);
#101=VERTEX_POINT('',#377);
#102=VERTEX_POINT('',#380);
#103=VERTEX_POINT('',#383);
#104=VERTEX_POINT('',#386);
#105=VERTEX_POINT('',#389);
#106=VERTEX_POINT('',#392);
#107=VERTEX_POINT('',#397);
#108=VERTEX_POINT('',#399);
#109=CIRCLE('',#234,234.398933486636);
#110=CIRCLE('',#235,0.309298100562402);
#111=CIRCLE('',#237,222.500000000033);
#112=CIRCLE('',#239,214.);
#113=CIRCLE('',#241,213.5);
#114=CIRCLE('',#243,213.5);
#115=CIRCLE('',#245,214.);
#116=CIRCLE('',#247,216.);
#117=CIRCLE('',#249,216.);
#118=CIRCLE('',#251,211.5);
#119=CIRCLE('',#252,213.);
#120=CIRCLE('',#254,211.5);
#121=CIRCLE('',#256,213.);
#122=CIRCLE('',#258,222.5);
#123=CIRCLE('',#260,233.226627943773);
#124=CIRCLE('',#262,0.292529642594497);
#125=CIRCLE('',#266,222.5);
#126=CIRCLE('',#267,222.5);
#127=EDGE_LOOP('',(#37));
#128=EDGE_LOOP('',(#38));
#129=EDGE_LOOP('',(#39));
#130=EDGE_LOOP('',(#40));
#131=EDGE_LOOP('',(#41));
#132=EDGE_LOOP('',(#42));
#133=EDGE_LOOP('',(#43));
#134=EDGE_LOOP('',(#44));
#135=EDGE_LOOP('',(#45));
#136=EDGE_LOOP('',(#46));
#137=EDGE_LOOP('',(#47));
#138=EDGE_LOOP('',(#48));
#139=EDGE_LOOP('',(#49));
#140=EDGE_LOOP('',(#50));
#141=EDGE_LOOP('',(#51));
#142=EDGE_LOOP('',(#52));
#143=EDGE_LOOP('',(#53));
#144=EDGE_LOOP('',(#54));
#145=EDGE_LOOP('',(#55));
#146=EDGE_LOOP('',(#56));
#147=EDGE_LOOP('',(#57));
#148=EDGE_LOOP('',(#58));
#149=EDGE_LOOP('',(#59));
#150=EDGE_LOOP('',(#60));
#151=EDGE_LOOP('',(#61));
#152=EDGE_LOOP('',(#62));
#153=EDGE_LOOP('',(#63));
#154=EDGE_LOOP('',(#64));
#155=EDGE_LOOP('',(#65));
#156=EDGE_LOOP('',(#66));
#157=EDGE_LOOP('',(#67));
#158=EDGE_LOOP('',(#68));
#159=EDGE_LOOP('',(#69));
#160=EDGE_LOOP('',(#70));
#161=EDGE_LOOP('',(#71));
#162=EDGE_LOOP('',(#72));
#163=FACE_BOUND('',#127,.T.);
#164=FACE_BOUND('',#128,.T.);
#165=FACE_BOUND('',#129,.T.);
#166=FACE_BOUND('',#130,.T.);
#167=FACE_BOUND('',#131,.T.);
#168=FACE_BOUND('',#132,.T.);
#169=FACE_BOUND('',#133,.T.);
#170=FACE_BOUND('',#134,.T.);
#171=FACE_BOUND('',#135,.T.);
#172=FACE_BOUND('',#136,.T.);
#173=FACE_BOUND('',#137,.T.);
#174=FACE_BOUND('',#138,.T.);
#175=FACE_BOUND('',#139,.T.);
#176=FACE_BOUND('',#140,.T.);
#177=FACE_BOUND('',#141,.T.);
#178=FACE_BOUND('',#142,.T.);
#179=FACE_BOUND('',#143,.T.);
#180=FACE_BOUND('',#144,.T.);
#181=FACE_BOUND('',#145,.T.);
#182=FACE_BOUND('',#146,.T.);
#183=FACE_BOUND('',#147,.T.);
#184=FACE_BOUND('',#148,.T.);
#185=FACE_BOUND('',#149,.T.);
#186=FACE_BOUND('',#150,.T.);
#187=FACE_BOUND('',#151,.T.);
#188=FACE_BOUND('',#152,.T.);
#189=FACE_BOUND('',#153,.T.);
#190=FACE_BOUND('',#154,.T.);
#191=FACE_BOUND('',#155,.T.);
#192=FACE_BOUND('',#156,.T.);
#193=FACE_BOUND('',#157,.T.);
#194=FACE_BOUND('',#158,.T.);
#195=FACE_BOUND('',#159,.T.);
#196=FACE_BOUND('',#160,.T.);
#197=FACE_BOUND('',#161,.T.);
#198=FACE_BOUND('',#162,.T.);
#199=DEGENERATE_TOROIDAL_SURFACE('',#233,0.00804165050488637,304.993608467705,
 .F.);
#200=DEGENERATE_TOROIDAL_SURFACE('',#261,0.00804165050488637,303.493608467705,
 .F.);
#201=ADVANCED_FACE('',(#163,#164),#199,.F.);
#202=ADVANCED_FACE('',(#165,#166),#31,.T.);
#203=ADVANCED_FACE('',(#167,#168),#25,.T.);
#204=ADVANCED_FACE('',(#169,#170),#32,.F.);
#205=ADVANCED_FACE('',(#171,#172),#21,.T.);
#206=ADVANCED_FACE('',(#173,#174),#33,.F.);
#207=ADVANCED_FACE('',(#175,#176),#26,.T.);
#208=ADVANCED_FACE('',(#177,#178),#22,.T.);
#209=ADVANCED_FACE('',(#179,#180),#34,.T.);
#210=ADVANCED_FACE('',(#181,#182),#23,.F.);
#211=ADVANCED_FACE('',(#183,#184),#35,.T.);
#212=ADVANCED_FACE('',(#185,#186),#27,.T.);
#213=ADVANCED_FACE('',(#187,#188),#36,.F.);
#214=ADVANCED_FACE('',(#189,#190),#200,.T.);
#215=ADVANCED_FACE('',(#191,#192),#20,.F.);
#216=ADVANCED_FACE('',(#193),#28,.T.);
#217=ADVANCED_FACE('',(#194,#195),#24,.T.);
#218=ADVANCED_FACE('',(#196),#29,.F.);
#219=ADVANCED_FACE('',(#197,#198),#30,.T.);
#220=CLOSED_SHELL('',(#201,#202,#203,#204,#205,#206,#207,#208,#209,#210,
#211,#212,#213,#214,#215,#216,#217,#218,#219));
#221=STYLED_ITEM('',(#222),#229);
#222=PRESENTATION_STYLE_ASSIGNMENT((#223));
#223=SURFACE_STYLE_USAGE(.BOTH.,#224);
#224=SURFACE_SIDE_STYLE('',(#225));
#225=SURFACE_STYLE_FILL_AREA(#226);
#226=FILL_AREA_STYLE('',(#227));
#227=FILL_AREA_STYLE_COLOUR('',#228);
#228=COLOUR_RGB('',0.949999988079071,0.949999988079071,0.949999988079071);
#229=MANIFOLD_SOLID_BREP('',#220);
#230=SHAPE_DEFINITION_REPRESENTATION(#408,#231);
#231=SHAPE_REPRESENTATION('SN 8627',(#232),#403);
#232=AXIS2_PLACEMENT_3D('',#346,#270,#271);
#233=AXIS2_PLACEMENT_3D('',#347,#272,#273);
#234=AXIS2_PLACEMENT_3D('',#348,#274,#275);
#235=AXIS2_PLACEMENT_3D('',#350,#276,#277);
#236=AXIS2_PLACEMENT_3D('',#352,#278,#279);
#237=AXIS2_PLACEMENT_3D('',#353,#280,#281);
#238=AXIS2_PLACEMENT_3D('',#355,#282,#283);
#239=AXIS2_PLACEMENT_3D('',#356,#284,#285);
#240=AXIS2_PLACEMENT_3D('',#358,#286,#287);
#241=AXIS2_PLACEMENT_3D('',#359,#288,#289);
#242=AXIS2_PLACEMENT_3D('',#361,#290,#291);
#243=AXIS2_PLACEMENT_3D('',#362,#292,#293);
#244=AXIS2_PLACEMENT_3D('',#364,#294,#295);
#245=AXIS2_PLACEMENT_3D('',#365,#296,#297);
#246=AXIS2_PLACEMENT_3D('',#367,#298,#299);
#247=AXIS2_PLACEMENT_3D('',#368,#300,#301);
#248=AXIS2_PLACEMENT_3D('',#370,#302,#303);
#249=AXIS2_PLACEMENT_3D('',#371,#304,#305);
#250=AXIS2_PLACEMENT_3D('',#373,#306,#307);
#251=AXIS2_PLACEMENT_3D('',#374,#308,#309);
#252=AXIS2_PLACEMENT_3D('',#376,#310,#311);
#253=AXIS2_PLACEMENT_3D('',#378,#312,#313);
#254=AXIS2_PLACEMENT_3D('',#379,#314,#315);
#255=AXIS2_PLACEMENT_3D('',#381,#316,#317);
#256=AXIS2_PLACEMENT_3D('',#382,#318,#319);
#257=AXIS2_PLACEMENT_3D('',#384,#320,#321);
#258=AXIS2_PLACEMENT_3D('',#385,#322,#323);
#259=AXIS2_PLACEMENT_3D('',#387,#324,#325);
#260=AXIS2_PLACEMENT_3D('',#388,#326,#327);
#261=AXIS2_PLACEMENT_3D('',#390,#328,#329);
#262=AXIS2_PLACEMENT_3D('',#391,#330,#331);
#263=AXIS2_PLACEMENT_3D('',#393,#332,#333);
#264=AXIS2_PLACEMENT_3D('',#394,#334,#335);
#265=AXIS2_PLACEMENT_3D('',#395,#336,#337);
#266=AXIS2_PLACEMENT_3D('',#396,#338,#339);
#267=AXIS2_PLACEMENT_3D('',#398,#340,#341);
#268=AXIS2_PLACEMENT_3D('',#400,#342,#343);
#269=AXIS2_PLACEMENT_3D('',#401,#344,#345);
#270=DIRECTION('',(0.,0.,1.));
#271=DIRECTION('',(1.,0.,0.));
#272=DIRECTION('',(0.,0.,1.));
#273=DIRECTION('',(1.,0.,0.));
#274=DIRECTION('',(0.,0.,1.));
#275=DIRECTION('',(1.,0.,0.));
#276=DIRECTION('',(0.,0.,1.));
#277=DIRECTION('',(1.,0.,0.));
#278=DIRECTION('',(0.,0.,1.));
#279=DIRECTION('',(1.,0.,0.));
#280=DIRECTION('',(0.,0.,1.));
#281=DIRECTION('',(1.,0.,0.));
#282=DIRECTION('',(0.,0.,-1.));
#283=DIRECTION('',(-1.,0.,0.));
#284=DIRECTION('',(0.,0.,1.));
#285=DIRECTION('',(1.,0.,0.));
#286=DIRECTION('',(0.,0.,1.));
#287=DIRECTION('',(1.,0.,0.));
#288=DIRECTION('',(0.,0.,1.));
#289=DIRECTION('',(1.,0.,0.));
#290=DIRECTION('',(0.,0.,1.));
#291=DIRECTION('',(1.,0.,0.));
#292=DIRECTION('',(0.,0.,1.));
#293=DIRECTION('',(1.,0.,0.));
#294=DIRECTION('',(0.,0.,1.));
#295=DIRECTION('',(1.,0.,0.));
#296=DIRECTION('',(0.,0.,1.));
#297=DIRECTION('',(1.,0.,0.));
#298=DIRECTION('',(0.,0.,1.));
#299=DIRECTION('',(1.,0.,0.));
#300=DIRECTION('',(0.,0.,1.));
#301=DIRECTION('',(1.,0.,0.));
#302=DIRECTION('',(0.,0.,1.));
#303=DIRECTION('',(1.,0.,0.));
#304=DIRECTION('',(0.,0.,1.));
#305=DIRECTION('',(1.,0.,0.));
#306=DIRECTION('',(0.,0.,1.));
#307=DIRECTION('',(1.,0.,0.));
#308=DIRECTION('',(0.,0.,1.));
#309=DIRECTION('',(1.,0.,0.));
#310=DIRECTION('',(0.,0.,1.));
#311=DIRECTION('',(1.,0.,0.));
#312=DIRECTION('',(0.,0.,1.));
#313=DIRECTION('',(1.,0.,0.));
#314=DIRECTION('',(0.,0.,1.));
#315=DIRECTION('',(1.,0.,0.));
#316=DIRECTION('',(0.,0.,1.));
#317=DIRECTION('',(1.,0.,0.));
#318=DIRECTION('',(0.,0.,1.));
#319=DIRECTION('',(1.,0.,0.));
#320=DIRECTION('',(0.,0.,1.));
#321=DIRECTION('',(1.,0.,0.));
#322=DIRECTION('',(0.,0.,1.));
#323=DIRECTION('',(1.,0.,0.));
#324=DIRECTION('',(0.,0.,1.));
#325=DIRECTION('',(1.,0.,0.));
#326=DIRECTION('',(0.,0.,1.));
#327=DIRECTION('',(1.,0.,0.));
#328=DIRECTION('',(0.,0.,1.));
#329=DIRECTION('',(1.,0.,0.));
#330=DIRECTION('',(0.,0.,1.));
#331=DIRECTION('',(1.,0.,0.));
#332=DIRECTION('',(0.,0.,1.));
#333=DIRECTION('',(1.,0.,0.));
#334=DIRECTION('',(0.,0.,1.));
#335=DIRECTION('',(1.,0.,0.));
#336=DIRECTION('',(0.,0.,1.));
#337=DIRECTION('',(1.,0.,0.));
#338=DIRECTION('',(0.,0.,1.));
#339=DIRECTION('',(1.,0.,0.));
#340=DIRECTION('',(0.,0.,1.));
#341=DIRECTION('',(1.,0.,0.));
#342=DIRECTION('',(0.,0.,1.));
#343=DIRECTION('',(1.,0.,0.));
#344=DIRECTION('',(0.,0.,1.));
#345=DIRECTION('',(1.,0.,0.));
#346=CARTESIAN_POINT('',(0.,0.,0.));
#347=CARTESIAN_POINT('',(0.,0.,-164.993605863016));
#348=CARTESIAN_POINT('',(0.,0.,30.1332021701383));
#349=CARTESIAN_POINT('',(234.398933486636,0.,30.1332021701383));
#350=CARTESIAN_POINT('',(0.,0.,139.999837511811));
#351=CARTESIAN_POINT('',(0.309298100562402,0.,139.999837511811));
#352=CARTESIAN_POINT('',(0.,0.,20.9999999999568));
#353=CARTESIAN_POINT('',(0.,0.,5.99999999995685));
#354=CARTESIAN_POINT('',(222.500000000033,0.,5.99999999995685));
#355=CARTESIAN_POINT('',(-214.,0.,5.99999999995685));
#356=CARTESIAN_POINT('',(0.,0.,5.99999999995685));
#357=CARTESIAN_POINT('',(214.,0.,5.99999999995685));
#358=CARTESIAN_POINT('',(0.,0.,5.49999999995685));
#359=CARTESIAN_POINT('',(0.,0.,5.49999999995685));
#360=CARTESIAN_POINT('',(213.5,0.,5.49999999995685));
#361=CARTESIAN_POINT('',(0.,0.,-1.2864318375269));
#362=CARTESIAN_POINT('',(0.,0.,2.49999999995685));
#363=CARTESIAN_POINT('',(213.5,0.,2.49999999995685));
#364=CARTESIAN_POINT('',(0.,0.,2.49999999995685));
#365=CARTESIAN_POINT('',(0.,0.,1.99999999995685));
#366=CARTESIAN_POINT('',(214.,0.,1.99999999995685));
#367=CARTESIAN_POINT('',(-214.,0.,1.99999999995685));
#368=CARTESIAN_POINT('',(0.,0.,1.99999999995685));
#369=CARTESIAN_POINT('',(216.,0.,1.99999999995685));
#370=CARTESIAN_POINT('',(0.,0.,-1.2864318375269));
#371=CARTESIAN_POINT('',(0.,0.,-4.31529811883991E-11));
#372=CARTESIAN_POINT('',(216.,0.,-4.31529811883991E-11));
#373=CARTESIAN_POINT('',(0.,0.,1.49999999995685));
#374=CARTESIAN_POINT('',(0.,0.,1.49999999995685));
#375=CARTESIAN_POINT('',(211.5,0.,1.49999999995685));
#376=CARTESIAN_POINT('',(0.,0.,-4.31531980288336E-11));
#377=CARTESIAN_POINT('',(213.,0.,-4.31531980288336E-11));
#378=CARTESIAN_POINT('',(0.,0.,-1.2864318375269));
#379=CARTESIAN_POINT('',(0.,0.,5.99999999995682));
#380=CARTESIAN_POINT('',(211.5,0.,5.99999999995682));
#381=CARTESIAN_POINT('',(0.,0.,5.99999999995682));
#382=CARTESIAN_POINT('',(0.,0.,7.49999999995682));
#383=CARTESIAN_POINT('',(213.,0.,7.49999999995682));
#384=CARTESIAN_POINT('',(-222.5,0.,7.49999999995682));
#385=CARTESIAN_POINT('',(0.,0.,7.49999999995682));
#386=CARTESIAN_POINT('',(222.5,0.,7.49999999995682));
#387=CARTESIAN_POINT('',(0.,0.,20.9999999999568));
#388=CARTESIAN_POINT('',(0.,0.,29.1969172837038));
#389=CARTESIAN_POINT('',(233.226627943773,0.,29.1969172837038));
#390=CARTESIAN_POINT('',(0.,0.,-164.993605863016));
#391=CARTESIAN_POINT('',(0.,0.,138.499853766094));
#392=CARTESIAN_POINT('',(0.292529642594497,0.,138.499853766094));
#393=CARTESIAN_POINT('',(0.,0.,138.499853766094));
#394=CARTESIAN_POINT('',(0.,0.,-4.3153053937957E-11));
#395=CARTESIAN_POINT('',(0.,0.,-15.5000000000432));
#396=CARTESIAN_POINT('',(0.,0.,-15.5000000000432));
#397=CARTESIAN_POINT('',(222.5,0.,-15.5000000000432));
#398=CARTESIAN_POINT('',(0.,0.,-4.3153053937957E-11));
#399=CARTESIAN_POINT('',(222.5,0.,-4.3153053937957E-11));
#400=CARTESIAN_POINT('',(0.,0.,-15.5000000000432));
#401=CARTESIAN_POINT('',(0.,0.,-4.3153053937957E-11));
#402=MECHANICAL_DESIGN_GEOMETRIC_PRESENTATION_REPRESENTATION('',(#221),
#403);
#403=(
GEOMETRIC_REPRESENTATION_CONTEXT(3)
GLOBAL_UNCERTAINTY_ASSIGNED_CONTEXT((#404))
GLOBAL_UNIT_ASSIGNED_CONTEXT((#407,#406,#405))
REPRESENTATION_CONTEXT('SN 8627','TOP_LEVEL_ASSEMBLY_PART')
);
#404=UNCERTAINTY_MEASURE_WITH_UNIT(LENGTH_MEASURE(0.005),#407,
'DISTANCE_ACCURACY_VALUE','Maximum Tolerance applied to model');
#405=(
NAMED_UNIT(*)
SI_UNIT($,.STERADIAN.)
SOLID_ANGLE_UNIT()
);
#406=(
NAMED_UNIT(*)
PLANE_ANGLE_UNIT()
SI_UNIT($,.RADIAN.)
);
#407=(
LENGTH_UNIT()
NAMED_UNIT(*)
SI_UNIT(.MILLI.,.METRE.)
);
#408=PRODUCT_DEFINITION_SHAPE('','',#409);
#409=PRODUCT_DEFINITION('','',#411,#410);
#410=PRODUCT_DEFINITION_CONTEXT('',#417,'design');
#411=PRODUCT_DEFINITION_FORMATION_WITH_SPECIFIED_SOURCE('','',#413,
 .NOT_KNOWN.);
#412=PRODUCT_RELATED_PRODUCT_CATEGORY('','',(#413));
#413=PRODUCT('SN 8627','SN 8627','SN 8627',(#415));
#414=PRODUCT_CATEGORY('','');
#415=PRODUCT_CONTEXT('',#417,'mechanical');
#416=APPLICATION_PROTOCOL_DEFINITION('international standard',
'automotive_design',2010,#417);
#417=APPLICATION_CONTEXT(
'core data for automotive mechanical design processes');
ENDSEC;
END-ISO-10303-21;
