ISO-10303-21;
HEADER;
/* Generated by software containing ST-Developer
 * from STEP Tools, Inc. (www.steptools.com) 
 */
/* OPTION: strings as raw bytes, not using required /X/ escapes */

FILE_DESCRIPTION(
/* description */ ('Unknown'),
/* implementation_level */ '2;1');

FILE_NAME(
/* name */ 'SN 9024.1-03 ALB LED RD',
/* time_stamp */ '2023-10-30T09:52:00+01:00',
/* author */ ('Unknown'),
/* organization */ ('Unknown'),
/* preprocessor_version */ 'ST-DEVELOPER v18.102',
/* originating_system */ 'Solid Edge',
/* authorisation */ 'Unknown');

FILE_SCHEMA (('AUTOMOTIVE_DESIGN {1 0 10303 214 3 1 1}'));
ENDSEC;

DATA;
#10=PROPERTY_DEFINITION_REPRESENTATION(#14,#12);
#11=PROPERTY_DEFINITION_REPRESENTATION(#15,#13);
#12=REPRESENTATION('',(#16),#615);
#13=REPRESENTATION('',(#17),#615);
#14=PROPERTY_DEFINITION('pmi validation property','',#620);
#15=PROPERTY_DEFINITION('pmi validation property','',#620);
#16=VALUE_REPRESENTATION_ITEM('number of annotations',COUNT_MEASURE(0.));
#17=VALUE_REPRESENTATION_ITEM('number of views',COUNT_MEASURE(0.));
#18=SHAPE_REPRESENTATION_RELATIONSHIP('','',#358,#19);
#19=ADVANCED_BREP_SHAPE_REPRESENTATION('',(#356),#615);
#20=DEGENERATE_TOROIDAL_SURFACE('',#397,2.05283372525581,3.,.T.);
#21=DEGENERATE_TOROIDAL_SURFACE('',#404,2.05283380883123,3.,.T.);
#22=CONICAL_SURFACE('',#383,22.5324977327052,0.0872664625997192);
#23=CONICAL_SURFACE('',#385,22.515,0.785398163397447);
#24=CONICAL_SURFACE('',#389,16.6839156193816,1.01914134426635);
#25=PLANE('',#363);
#26=PLANE('',#367);
#27=PLANE('',#371);
#28=PLANE('',#375);
#29=PLANE('',#376);
#30=PLANE('',#377);
#31=PLANE('',#381);
#32=PLANE('',#387);
#33=PLANE('',#391);
#34=PLANE('',#394);
#35=LINE('',#522,#55);
#36=LINE('',#526,#56);
#37=LINE('',#528,#57);
#38=LINE('',#530,#58);
#39=LINE('',#532,#59);
#40=LINE('',#538,#60);
#41=LINE('',#540,#61);
#42=LINE('',#542,#62);
#43=LINE('',#544,#63);
#44=LINE('',#550,#64);
#45=LINE('',#552,#65);
#46=LINE('',#554,#66);
#47=LINE('',#556,#67);
#48=LINE('',#562,#68);
#49=LINE('',#564,#69);
#50=LINE('',#565,#70);
#51=LINE('',#592,#71);
#52=LINE('',#596,#72);
#53=LINE('',#598,#73);
#54=LINE('',#603,#74);
#55=VECTOR('',#411,1000.);
#56=VECTOR('',#414,1000.);
#57=VECTOR('',#417,1000.);
#58=VECTOR('',#418,1000.);
#59=VECTOR('',#419,1000.);
#60=VECTOR('',#426,1000.);
#61=VECTOR('',#429,1000.);
#62=VECTOR('',#430,1000.);
#63=VECTOR('',#431,1000.);
#64=VECTOR('',#438,1000.);
#65=VECTOR('',#441,1000.);
#66=VECTOR('',#442,1000.);
#67=VECTOR('',#443,1000.);
#68=VECTOR('',#450,1000.);
#69=VECTOR('',#453,1000.);
#70=VECTOR('',#454,1000.);
#71=VECTOR('',#489,1000.);
#72=VECTOR('',#492,1000.);
#73=VECTOR('',#495,1000.);
#74=VECTOR('',#498,1000.);
#75=ORIENTED_EDGE('',*,*,#161,.F.);
#76=ORIENTED_EDGE('',*,*,#162,.F.);
#77=ORIENTED_EDGE('',*,*,#163,.T.);
#78=ORIENTED_EDGE('',*,*,#164,.T.);
#79=ORIENTED_EDGE('',*,*,#165,.F.);
#80=ORIENTED_EDGE('',*,*,#164,.F.);
#81=ORIENTED_EDGE('',*,*,#166,.T.);
#82=ORIENTED_EDGE('',*,*,#167,.T.);
#83=ORIENTED_EDGE('',*,*,#168,.F.);
#84=ORIENTED_EDGE('',*,*,#167,.F.);
#85=ORIENTED_EDGE('',*,*,#169,.T.);
#86=ORIENTED_EDGE('',*,*,#170,.T.);
#87=ORIENTED_EDGE('',*,*,#171,.F.);
#88=ORIENTED_EDGE('',*,*,#170,.F.);
#89=ORIENTED_EDGE('',*,*,#172,.T.);
#90=ORIENTED_EDGE('',*,*,#173,.T.);
#91=ORIENTED_EDGE('',*,*,#174,.F.);
#92=ORIENTED_EDGE('',*,*,#173,.F.);
#93=ORIENTED_EDGE('',*,*,#175,.T.);
#94=ORIENTED_EDGE('',*,*,#176,.T.);
#95=ORIENTED_EDGE('',*,*,#177,.F.);
#96=ORIENTED_EDGE('',*,*,#176,.F.);
#97=ORIENTED_EDGE('',*,*,#178,.T.);
#98=ORIENTED_EDGE('',*,*,#179,.T.);
#99=ORIENTED_EDGE('',*,*,#180,.F.);
#100=ORIENTED_EDGE('',*,*,#179,.F.);
#101=ORIENTED_EDGE('',*,*,#181,.T.);
#102=ORIENTED_EDGE('',*,*,#182,.T.);
#103=ORIENTED_EDGE('',*,*,#183,.F.);
#104=ORIENTED_EDGE('',*,*,#182,.F.);
#105=ORIENTED_EDGE('',*,*,#184,.T.);
#106=ORIENTED_EDGE('',*,*,#162,.T.);
#107=ORIENTED_EDGE('',*,*,#161,.T.);
#108=ORIENTED_EDGE('',*,*,#165,.T.);
#109=ORIENTED_EDGE('',*,*,#168,.T.);
#110=ORIENTED_EDGE('',*,*,#171,.T.);
#111=ORIENTED_EDGE('',*,*,#174,.T.);
#112=ORIENTED_EDGE('',*,*,#177,.T.);
#113=ORIENTED_EDGE('',*,*,#180,.T.);
#114=ORIENTED_EDGE('',*,*,#183,.T.);
#115=ORIENTED_EDGE('',*,*,#185,.T.);
#116=ORIENTED_EDGE('',*,*,#163,.F.);
#117=ORIENTED_EDGE('',*,*,#184,.F.);
#118=ORIENTED_EDGE('',*,*,#181,.F.);
#119=ORIENTED_EDGE('',*,*,#178,.F.);
#120=ORIENTED_EDGE('',*,*,#175,.F.);
#121=ORIENTED_EDGE('',*,*,#172,.F.);
#122=ORIENTED_EDGE('',*,*,#169,.F.);
#123=ORIENTED_EDGE('',*,*,#166,.F.);
#124=ORIENTED_EDGE('',*,*,#186,.F.);
#125=ORIENTED_EDGE('',*,*,#185,.F.);
#126=ORIENTED_EDGE('',*,*,#187,.T.);
#127=ORIENTED_EDGE('',*,*,#186,.T.);
#128=ORIENTED_EDGE('',*,*,#188,.T.);
#129=ORIENTED_EDGE('',*,*,#187,.F.);
#130=ORIENTED_EDGE('',*,*,#189,.T.);
#131=ORIENTED_EDGE('',*,*,#188,.F.);
#132=ORIENTED_EDGE('',*,*,#190,.T.);
#133=ORIENTED_EDGE('',*,*,#189,.F.);
#134=ORIENTED_EDGE('',*,*,#191,.T.);
#135=ORIENTED_EDGE('',*,*,#190,.F.);
#136=ORIENTED_EDGE('',*,*,#192,.T.);
#137=ORIENTED_EDGE('',*,*,#193,.T.);
#138=ORIENTED_EDGE('',*,*,#194,.T.);
#139=ORIENTED_EDGE('',*,*,#195,.T.);
#140=ORIENTED_EDGE('',*,*,#191,.F.);
#141=ORIENTED_EDGE('',*,*,#196,.T.);
#142=ORIENTED_EDGE('',*,*,#197,.T.);
#143=ORIENTED_EDGE('',*,*,#198,.T.);
#144=ORIENTED_EDGE('',*,*,#199,.T.);
#145=ORIENTED_EDGE('',*,*,#200,.F.);
#146=ORIENTED_EDGE('',*,*,#199,.F.);
#147=ORIENTED_EDGE('',*,*,#201,.F.);
#148=ORIENTED_EDGE('',*,*,#194,.F.);
#149=ORIENTED_EDGE('',*,*,#201,.T.);
#150=ORIENTED_EDGE('',*,*,#198,.F.);
#151=ORIENTED_EDGE('',*,*,#202,.F.);
#152=ORIENTED_EDGE('',*,*,#195,.F.);
#153=ORIENTED_EDGE('',*,*,#200,.T.);
#154=ORIENTED_EDGE('',*,*,#193,.F.);
#155=ORIENTED_EDGE('',*,*,#203,.F.);
#156=ORIENTED_EDGE('',*,*,#196,.F.);
#157=ORIENTED_EDGE('',*,*,#202,.T.);
#158=ORIENTED_EDGE('',*,*,#197,.F.);
#159=ORIENTED_EDGE('',*,*,#203,.T.);
#160=ORIENTED_EDGE('',*,*,#192,.F.);
#161=EDGE_CURVE('',#204,#205,#235,.T.);
#162=EDGE_CURVE('',#206,#204,#35,.T.);
#163=EDGE_CURVE('',#206,#207,#236,.T.);
#164=EDGE_CURVE('',#207,#205,#36,.T.);
#165=EDGE_CURVE('',#205,#208,#37,.T.);
#166=EDGE_CURVE('',#207,#209,#38,.T.);
#167=EDGE_CURVE('',#209,#208,#39,.T.);
#168=EDGE_CURVE('',#208,#210,#237,.T.);
#169=EDGE_CURVE('',#209,#211,#238,.T.);
#170=EDGE_CURVE('',#211,#210,#40,.T.);
#171=EDGE_CURVE('',#210,#212,#41,.T.);
#172=EDGE_CURVE('',#211,#213,#42,.T.);
#173=EDGE_CURVE('',#213,#212,#43,.T.);
#174=EDGE_CURVE('',#212,#214,#239,.T.);
#175=EDGE_CURVE('',#213,#215,#240,.T.);
#176=EDGE_CURVE('',#215,#214,#44,.T.);
#177=EDGE_CURVE('',#214,#216,#45,.T.);
#178=EDGE_CURVE('',#215,#217,#46,.T.);
#179=EDGE_CURVE('',#217,#216,#47,.T.);
#180=EDGE_CURVE('',#216,#218,#241,.T.);
#181=EDGE_CURVE('',#217,#219,#242,.T.);
#182=EDGE_CURVE('',#219,#218,#48,.T.);
#183=EDGE_CURVE('',#218,#204,#49,.T.);
#184=EDGE_CURVE('',#219,#206,#50,.T.);
#185=EDGE_CURVE('',#220,#220,#243,.T.);
#186=EDGE_CURVE('',#221,#221,#244,.F.);
#187=EDGE_CURVE('',#222,#222,#245,.T.);
#188=EDGE_CURVE('',#223,#223,#246,.T.);
#189=EDGE_CURVE('',#224,#224,#247,.T.);
#190=EDGE_CURVE('',#225,#225,#248,.T.);
#191=EDGE_CURVE('',#226,#226,#249,.T.);
#192=EDGE_CURVE('',#227,#228,#250,.T.);
#193=EDGE_CURVE('',#228,#229,#51,.T.);
#194=EDGE_CURVE('',#229,#230,#251,.T.);
#195=EDGE_CURVE('',#230,#227,#52,.T.);
#196=EDGE_CURVE('',#231,#232,#53,.T.);
#197=EDGE_CURVE('',#232,#233,#252,.F.);
#198=EDGE_CURVE('',#233,#234,#54,.T.);
#199=EDGE_CURVE('',#234,#231,#253,.F.);
#200=EDGE_CURVE('',#231,#229,#254,.T.);
#201=EDGE_CURVE('',#230,#234,#255,.T.);
#202=EDGE_CURVE('',#227,#233,#256,.T.);
#203=EDGE_CURVE('',#232,#228,#257,.T.);
#204=VERTEX_POINT('',#520);
#205=VERTEX_POINT('',#521);
#206=VERTEX_POINT('',#523);
#207=VERTEX_POINT('',#525);
#208=VERTEX_POINT('',#529);
#209=VERTEX_POINT('',#531);
#210=VERTEX_POINT('',#535);
#211=VERTEX_POINT('',#537);
#212=VERTEX_POINT('',#541);
#213=VERTEX_POINT('',#543);
#214=VERTEX_POINT('',#547);
#215=VERTEX_POINT('',#549);
#216=VERTEX_POINT('',#553);
#217=VERTEX_POINT('',#555);
#218=VERTEX_POINT('',#559);
#219=VERTEX_POINT('',#561);
#220=VERTEX_POINT('',#569);
#221=VERTEX_POINT('',#572);
#222=VERTEX_POINT('',#575);
#223=VERTEX_POINT('',#578);
#224=VERTEX_POINT('',#581);
#225=VERTEX_POINT('',#584);
#226=VERTEX_POINT('',#587);
#227=VERTEX_POINT('',#590);
#228=VERTEX_POINT('',#591);
#229=VERTEX_POINT('',#593);
#230=VERTEX_POINT('',#595);
#231=VERTEX_POINT('',#599);
#232=VERTEX_POINT('',#600);
#233=VERTEX_POINT('',#602);
#234=VERTEX_POINT('',#604);
#235=CIRCLE('',#361,2.);
#236=CIRCLE('',#362,2.);
#237=CIRCLE('',#365,2.);
#238=CIRCLE('',#366,2.);
#239=CIRCLE('',#369,2.);
#240=CIRCLE('',#370,2.);
#241=CIRCLE('',#373,2.);
#242=CIRCLE('',#374,2.);
#243=CIRCLE('',#378,18.);
#244=CIRCLE('',#380,18.);
#245=CIRCLE('',#382,22.5324977327052);
#246=CIRCLE('',#384,22.515);
#247=CIRCLE('',#386,20.515);
#248=CIRCLE('',#388,16.6839156193816);
#249=CIRCLE('',#390,13.4339156193816);
#250=CIRCLE('',#392,5.);
#251=CIRCLE('',#393,4.99999991642458);
#252=CIRCLE('',#395,2.05283380883123);
#253=CIRCLE('',#396,2.05283372525581);
#254=CIRCLE('',#398,3.);
#255=CIRCLE('',#399,3.);
#256=CIRCLE('',#401,3.);
#257=CIRCLE('',#403,3.);
#258=EDGE_LOOP('',(#75,#76,#77,#78));
#259=EDGE_LOOP('',(#79,#80,#81,#82));
#260=EDGE_LOOP('',(#83,#84,#85,#86));
#261=EDGE_LOOP('',(#87,#88,#89,#90));
#262=EDGE_LOOP('',(#91,#92,#93,#94));
#263=EDGE_LOOP('',(#95,#96,#97,#98));
#264=EDGE_LOOP('',(#99,#100,#101,#102));
#265=EDGE_LOOP('',(#103,#104,#105,#106));
#266=EDGE_LOOP('',(#107,#108,#109,#110,#111,#112,#113,#114));
#267=EDGE_LOOP('',(#115));
#268=EDGE_LOOP('',(#116,#117,#118,#119,#120,#121,#122,#123));
#269=EDGE_LOOP('',(#124));
#270=EDGE_LOOP('',(#125));
#271=EDGE_LOOP('',(#126));
#272=EDGE_LOOP('',(#127));
#273=EDGE_LOOP('',(#128));
#274=EDGE_LOOP('',(#129));
#275=EDGE_LOOP('',(#130));
#276=EDGE_LOOP('',(#131));
#277=EDGE_LOOP('',(#132));
#278=EDGE_LOOP('',(#133));
#279=EDGE_LOOP('',(#134));
#280=EDGE_LOOP('',(#135));
#281=EDGE_LOOP('',(#136,#137,#138,#139));
#282=EDGE_LOOP('',(#140));
#283=EDGE_LOOP('',(#141,#142,#143,#144));
#284=EDGE_LOOP('',(#145,#146,#147,#148));
#285=EDGE_LOOP('',(#149,#150,#151,#152));
#286=EDGE_LOOP('',(#153,#154,#155,#156));
#287=EDGE_LOOP('',(#157,#158,#159,#160));
#288=FACE_BOUND('',#258,.T.);
#289=FACE_BOUND('',#259,.T.);
#290=FACE_BOUND('',#260,.T.);
#291=FACE_BOUND('',#261,.T.);
#292=FACE_BOUND('',#262,.T.);
#293=FACE_BOUND('',#263,.T.);
#294=FACE_BOUND('',#264,.T.);
#295=FACE_BOUND('',#265,.T.);
#296=FACE_BOUND('',#266,.T.);
#297=FACE_BOUND('',#267,.T.);
#298=FACE_BOUND('',#268,.T.);
#299=FACE_BOUND('',#269,.T.);
#300=FACE_BOUND('',#270,.T.);
#301=FACE_BOUND('',#271,.T.);
#302=FACE_BOUND('',#272,.T.);
#303=FACE_BOUND('',#273,.T.);
#304=FACE_BOUND('',#274,.T.);
#305=FACE_BOUND('',#275,.T.);
#306=FACE_BOUND('',#276,.T.);
#307=FACE_BOUND('',#277,.T.);
#308=FACE_BOUND('',#278,.T.);
#309=FACE_BOUND('',#279,.T.);
#310=FACE_BOUND('',#280,.T.);
#311=FACE_BOUND('',#281,.T.);
#312=FACE_BOUND('',#282,.T.);
#313=FACE_BOUND('',#283,.T.);
#314=FACE_BOUND('',#284,.T.);
#315=FACE_BOUND('',#285,.T.);
#316=FACE_BOUND('',#286,.T.);
#317=FACE_BOUND('',#287,.T.);
#318=CYLINDRICAL_SURFACE('',#360,2.);
#319=CYLINDRICAL_SURFACE('',#364,2.);
#320=CYLINDRICAL_SURFACE('',#368,2.);
#321=CYLINDRICAL_SURFACE('',#372,2.);
#322=CYLINDRICAL_SURFACE('',#379,18.);
#323=CYLINDRICAL_SURFACE('',#400,3.);
#324=CYLINDRICAL_SURFACE('',#402,3.);
#325=ADVANCED_FACE('',(#288),#318,.T.);
#326=ADVANCED_FACE('',(#289),#25,.T.);
#327=ADVANCED_FACE('',(#290),#319,.T.);
#328=ADVANCED_FACE('',(#291),#26,.T.);
#329=ADVANCED_FACE('',(#292),#320,.T.);
#330=ADVANCED_FACE('',(#293),#27,.T.);
#331=ADVANCED_FACE('',(#294),#321,.T.);
#332=ADVANCED_FACE('',(#295),#28,.T.);
#333=ADVANCED_FACE('',(#296),#29,.T.);
#334=ADVANCED_FACE('',(#297,#298),#30,.T.);
#335=ADVANCED_FACE('',(#299,#300),#322,.T.);
#336=ADVANCED_FACE('',(#301,#302),#31,.T.);
#337=ADVANCED_FACE('',(#303,#304),#22,.T.);
#338=ADVANCED_FACE('',(#305,#306),#23,.T.);
#339=ADVANCED_FACE('',(#307,#308),#32,.T.);
#340=ADVANCED_FACE('',(#309,#310),#24,.F.);
#341=ADVANCED_FACE('',(#311,#312),#33,.F.);
#342=ADVANCED_FACE('',(#313),#34,.F.);
#343=ADVANCED_FACE('',(#314),#20,.T.);
#344=ADVANCED_FACE('',(#315),#323,.T.);
#345=ADVANCED_FACE('',(#316),#324,.T.);
#346=ADVANCED_FACE('',(#317),#21,.T.);
#347=CLOSED_SHELL('',(#325,#326,#327,#328,#329,#330,#331,#332,#333,#334,
#335,#336,#337,#338,#339,#340,#341,#342,#343,#344,#345,#346));
#348=STYLED_ITEM('',(#349),#356);
#349=PRESENTATION_STYLE_ASSIGNMENT((#350));
#350=SURFACE_STYLE_USAGE(.BOTH.,#351);
#351=SURFACE_SIDE_STYLE('',(#352));
#352=SURFACE_STYLE_FILL_AREA(#353);
#353=FILL_AREA_STYLE('',(#354));
#354=FILL_AREA_STYLE_COLOUR('',#355);
#355=COLOUR_RGB('',0.506983280181885,0.531564235687256,0.550000011920929);
#356=MANIFOLD_SOLID_BREP('',#347);
#357=SHAPE_DEFINITION_REPRESENTATION(#620,#358);
#358=SHAPE_REPRESENTATION('SN 9024.1-03 ALB LED RD (102476557)',(#359),
#615);
#359=AXIS2_PLACEMENT_3D('',#517,#405,#406);
#360=AXIS2_PLACEMENT_3D('',#518,#407,#408);
#361=AXIS2_PLACEMENT_3D('',#519,#409,#410);
#362=AXIS2_PLACEMENT_3D('',#524,#412,#413);
#363=AXIS2_PLACEMENT_3D('',#527,#415,#416);
#364=AXIS2_PLACEMENT_3D('',#533,#420,#421);
#365=AXIS2_PLACEMENT_3D('',#534,#422,#423);
#366=AXIS2_PLACEMENT_3D('',#536,#424,#425);
#367=AXIS2_PLACEMENT_3D('',#539,#427,#428);
#368=AXIS2_PLACEMENT_3D('',#545,#432,#433);
#369=AXIS2_PLACEMENT_3D('',#546,#434,#435);
#370=AXIS2_PLACEMENT_3D('',#548,#436,#437);
#371=AXIS2_PLACEMENT_3D('',#551,#439,#440);
#372=AXIS2_PLACEMENT_3D('',#557,#444,#445);
#373=AXIS2_PLACEMENT_3D('',#558,#446,#447);
#374=AXIS2_PLACEMENT_3D('',#560,#448,#449);
#375=AXIS2_PLACEMENT_3D('',#563,#451,#452);
#376=AXIS2_PLACEMENT_3D('',#566,#455,#456);
#377=AXIS2_PLACEMENT_3D('',#567,#457,#458);
#378=AXIS2_PLACEMENT_3D('',#568,#459,#460);
#379=AXIS2_PLACEMENT_3D('',#570,#461,#462);
#380=AXIS2_PLACEMENT_3D('',#571,#463,#464);
#381=AXIS2_PLACEMENT_3D('',#573,#465,#466);
#382=AXIS2_PLACEMENT_3D('',#574,#467,#468);
#383=AXIS2_PLACEMENT_3D('',#576,#469,#470);
#384=AXIS2_PLACEMENT_3D('',#577,#471,#472);
#385=AXIS2_PLACEMENT_3D('',#579,#473,#474);
#386=AXIS2_PLACEMENT_3D('',#580,#475,#476);
#387=AXIS2_PLACEMENT_3D('',#582,#477,#478);
#388=AXIS2_PLACEMENT_3D('',#583,#479,#480);
#389=AXIS2_PLACEMENT_3D('',#585,#481,#482);
#390=AXIS2_PLACEMENT_3D('',#586,#483,#484);
#391=AXIS2_PLACEMENT_3D('',#588,#485,#486);
#392=AXIS2_PLACEMENT_3D('',#589,#487,#488);
#393=AXIS2_PLACEMENT_3D('',#594,#490,#491);
#394=AXIS2_PLACEMENT_3D('',#597,#493,#494);
#395=AXIS2_PLACEMENT_3D('',#601,#496,#497);
#396=AXIS2_PLACEMENT_3D('',#605,#499,#500);
#397=AXIS2_PLACEMENT_3D('',#606,#501,#502);
#398=AXIS2_PLACEMENT_3D('',#607,#503,#504);
#399=AXIS2_PLACEMENT_3D('',#608,#505,#506);
#400=AXIS2_PLACEMENT_3D('',#609,#507,#508);
#401=AXIS2_PLACEMENT_3D('',#610,#509,#510);
#402=AXIS2_PLACEMENT_3D('',#611,#511,#512);
#403=AXIS2_PLACEMENT_3D('',#612,#513,#514);
#404=AXIS2_PLACEMENT_3D('',#613,#515,#516);
#405=DIRECTION('',(0.,0.,1.));
#406=DIRECTION('',(1.,0.,0.));
#407=DIRECTION('',(0.,0.,1.));
#408=DIRECTION('',(1.,0.,0.));
#409=DIRECTION('',(0.,0.,1.));
#410=DIRECTION('',(-1.,0.,0.));
#411=DIRECTION('',(0.,0.,1.));
#412=DIRECTION('',(0.,0.,1.));
#413=DIRECTION('',(-1.,0.,0.));
#414=DIRECTION('',(0.,0.,1.));
#415=DIRECTION('',(1.,0.,0.));
#416=DIRECTION('',(0.,0.,-1.));
#417=DIRECTION('',(0.,1.,0.));
#418=DIRECTION('',(0.,1.,0.));
#419=DIRECTION('',(0.,0.,1.));
#420=DIRECTION('',(0.,0.,1.));
#421=DIRECTION('',(1.,0.,0.));
#422=DIRECTION('',(0.,0.,1.));
#423=DIRECTION('',(0.,-1.,0.));
#424=DIRECTION('',(0.,0.,1.));
#425=DIRECTION('',(0.,-1.,0.));
#426=DIRECTION('',(0.,0.,1.));
#427=DIRECTION('',(0.,1.,0.));
#428=DIRECTION('',(0.,0.,1.));
#429=DIRECTION('',(-1.,0.,0.));
#430=DIRECTION('',(-1.,0.,0.));
#431=DIRECTION('',(0.,0.,1.));
#432=DIRECTION('',(0.,0.,1.));
#433=DIRECTION('',(1.,0.,0.));
#434=DIRECTION('',(0.,0.,1.));
#435=DIRECTION('',(1.,0.,0.));
#436=DIRECTION('',(0.,0.,1.));
#437=DIRECTION('',(1.,0.,0.));
#438=DIRECTION('',(0.,0.,1.));
#439=DIRECTION('',(-1.,0.,0.));
#440=DIRECTION('',(0.,0.,1.));
#441=DIRECTION('',(0.,-1.,0.));
#442=DIRECTION('',(0.,-1.,0.));
#443=DIRECTION('',(0.,0.,1.));
#444=DIRECTION('',(0.,0.,1.));
#445=DIRECTION('',(1.,0.,0.));
#446=DIRECTION('',(0.,0.,1.));
#447=DIRECTION('',(0.,1.,0.));
#448=DIRECTION('',(0.,0.,1.));
#449=DIRECTION('',(0.,1.,0.));
#450=DIRECTION('',(0.,0.,1.));
#451=DIRECTION('',(0.,-1.,0.));
#452=DIRECTION('',(0.,0.,-1.));
#453=DIRECTION('',(1.,0.,0.));
#454=DIRECTION('',(1.,0.,0.));
#455=DIRECTION('',(0.,0.,1.));
#456=DIRECTION('',(1.,0.,0.));
#457=DIRECTION('',(0.,0.,1.));
#458=DIRECTION('',(1.,0.,0.));
#459=DIRECTION('',(0.,0.,1.));
#460=DIRECTION('',(0.,1.,0.));
#461=DIRECTION('',(0.,0.,1.));
#462=DIRECTION('',(1.,0.,0.));
#463=DIRECTION('',(0.,0.,1.));
#464=DIRECTION('',(1.,0.,0.));
#465=DIRECTION('',(0.,0.,1.));
#466=DIRECTION('',(1.,0.,0.));
#467=DIRECTION('',(0.,0.,1.));
#468=DIRECTION('',(1.,0.,0.));
#469=DIRECTION('',(0.,0.,1.));
#470=DIRECTION('',(1.,0.,0.));
#471=DIRECTION('',(0.,0.,1.));
#472=DIRECTION('',(1.,0.,0.));
#473=DIRECTION('',(0.,0.,1.));
#474=DIRECTION('',(1.,0.,0.));
#475=DIRECTION('',(0.,0.,1.));
#476=DIRECTION('',(1.,0.,0.));
#477=DIRECTION('',(0.,0.,-1.));
#478=DIRECTION('',(-1.,0.,0.));
#479=DIRECTION('',(0.,0.,1.));
#480=DIRECTION('',(1.,0.,0.));
#481=DIRECTION('',(0.,0.,-1.));
#482=DIRECTION('',(-1.,0.,0.));
#483=DIRECTION('',(0.,0.,1.));
#484=DIRECTION('',(1.,0.,0.));
#485=DIRECTION('',(0.,0.,1.));
#486=DIRECTION('',(1.,0.,0.));
#487=DIRECTION('',(0.,0.,1.));
#488=DIRECTION('',(0.,1.,0.));
#489=DIRECTION('',(1.,6.96462182839408E-9,0.));
#490=DIRECTION('',(0.,0.,1.));
#491=DIRECTION('',(0.,-1.,0.));
#492=DIRECTION('',(-1.,6.9646205475623E-9,0.));
#493=DIRECTION('',(0.,0.,1.));
#494=DIRECTION('',(1.,0.,0.));
#495=DIRECTION('',(-1.,-6.96462182839408E-9,0.));
#496=DIRECTION('',(0.,0.,1.));
#497=DIRECTION('',(1.,0.,0.));
#498=DIRECTION('',(1.,-6.9646205475623E-9,0.));
#499=DIRECTION('',(0.,0.,1.));
#500=DIRECTION('',(1.,0.,0.));
#501=DIRECTION('',(0.,0.,-1.));
#502=DIRECTION('',(-1.,0.,0.));
#503=DIRECTION('',(-1.,-6.96462177233354E-9,0.));
#504=DIRECTION('',(6.96462177233354E-9,-1.,0.));
#505=DIRECTION('',(-1.,2.94303640082282E-16,1.27633858379041E-31));
#506=DIRECTION('',(-2.94303640082282E-16,-1.,0.));
#507=DIRECTION('',(1.,-6.9646205475623E-9,0.));
#508=DIRECTION('',(6.9646205475623E-9,1.,0.));
#509=DIRECTION('',(-1.,6.96462059511898E-9,3.02042271190612E-24));
#510=DIRECTION('',(-6.96462059511898E-9,-1.,0.));
#511=DIRECTION('',(-1.,-6.96462182839408E-9,0.));
#512=DIRECTION('',(6.96462182839408E-9,-1.,0.));
#513=DIRECTION('',(-1.,-6.96462177233354E-9,0.));
#514=DIRECTION('',(6.96462177233354E-9,-1.,0.));
#515=DIRECTION('',(0.,0.,-1.));
#516=DIRECTION('',(-1.,0.,0.));
#517=CARTESIAN_POINT('',(0.,0.,0.));
#518=CARTESIAN_POINT('',(9.5,-9.5,-20.));
#519=CARTESIAN_POINT('',(9.5,-9.5,0.));
#520=CARTESIAN_POINT('',(7.5,-9.5,0.));
#521=CARTESIAN_POINT('',(9.5,-7.5,0.));
#522=CARTESIAN_POINT('',(7.5,-9.5,-20.));
#523=CARTESIAN_POINT('',(7.5,-9.5,-20.));
#524=CARTESIAN_POINT('',(9.5,-9.5,-20.));
#525=CARTESIAN_POINT('',(9.5,-7.5,-20.));
#526=CARTESIAN_POINT('',(9.5,-7.5,-20.));
#527=CARTESIAN_POINT('',(9.5,-7.5,-20.));
#528=CARTESIAN_POINT('',(9.5,-7.5,0.));
#529=CARTESIAN_POINT('',(9.5,7.5,0.));
#530=CARTESIAN_POINT('',(9.5,-7.5,-20.));
#531=CARTESIAN_POINT('',(9.5,7.5,-20.));
#532=CARTESIAN_POINT('',(9.5,7.5,-20.));
#533=CARTESIAN_POINT('',(9.5,9.5,-20.));
#534=CARTESIAN_POINT('',(9.5,9.5,0.));
#535=CARTESIAN_POINT('',(7.5,9.5,0.));
#536=CARTESIAN_POINT('',(9.5,9.5,-20.));
#537=CARTESIAN_POINT('',(7.5,9.5,-20.));
#538=CARTESIAN_POINT('',(7.5,9.5,-20.));
#539=CARTESIAN_POINT('',(7.5,9.5,-20.));
#540=CARTESIAN_POINT('',(7.5,9.5,0.));
#541=CARTESIAN_POINT('',(-7.5,9.5,0.));
#542=CARTESIAN_POINT('',(7.5,9.5,-20.));
#543=CARTESIAN_POINT('',(-7.5,9.5,-20.));
#544=CARTESIAN_POINT('',(-7.5,9.5,-20.));
#545=CARTESIAN_POINT('',(-9.5,9.5,-20.));
#546=CARTESIAN_POINT('',(-9.5,9.5,0.));
#547=CARTESIAN_POINT('',(-9.5,7.5,0.));
#548=CARTESIAN_POINT('',(-9.5,9.5,-20.));
#549=CARTESIAN_POINT('',(-9.5,7.5,-20.));
#550=CARTESIAN_POINT('',(-9.5,7.5,-20.));
#551=CARTESIAN_POINT('',(-9.5,7.5,-20.));
#552=CARTESIAN_POINT('',(-9.5,7.5,0.));
#553=CARTESIAN_POINT('',(-9.5,-7.5,0.));
#554=CARTESIAN_POINT('',(-9.5,7.5,-20.));
#555=CARTESIAN_POINT('',(-9.5,-7.5,-20.));
#556=CARTESIAN_POINT('',(-9.5,-7.5,-20.));
#557=CARTESIAN_POINT('',(-9.5,-9.5,-20.));
#558=CARTESIAN_POINT('',(-9.5,-9.5,0.));
#559=CARTESIAN_POINT('',(-7.5,-9.5,0.));
#560=CARTESIAN_POINT('',(-9.5,-9.5,-20.));
#561=CARTESIAN_POINT('',(-7.5,-9.5,-20.));
#562=CARTESIAN_POINT('',(-7.5,-9.5,-20.));
#563=CARTESIAN_POINT('',(-7.5,-9.5,-20.));
#564=CARTESIAN_POINT('',(-7.5,-9.5,0.));
#565=CARTESIAN_POINT('',(-7.5,-9.5,-20.));
#566=CARTESIAN_POINT('',(9.5,-9.5,0.));
#567=CARTESIAN_POINT('',(0.,0.,-20.));
#568=CARTESIAN_POINT('',(0.,0.,-20.));
#569=CARTESIAN_POINT('',(0.,18.,-20.));
#570=CARTESIAN_POINT('',(0.,0.,-26.));
#571=CARTESIAN_POINT('',(0.,0.,-25.8));
#572=CARTESIAN_POINT('',(18.,0.,-25.8));
#573=CARTESIAN_POINT('',(1.37967199454795E-15,22.5324977327052,-25.8));
#574=CARTESIAN_POINT('',(0.,0.,-25.8));
#575=CARTESIAN_POINT('',(22.5324977327052,0.,-25.8));
#576=CARTESIAN_POINT('',(0.,0.,-25.8));
#577=CARTESIAN_POINT('',(0.,0.,-26.));
#578=CARTESIAN_POINT('',(22.515,0.,-26.));
#579=CARTESIAN_POINT('',(0.,0.,-26.));
#580=CARTESIAN_POINT('',(0.,0.,-28.));
#581=CARTESIAN_POINT('',(20.515,0.,-28.));
#582=CARTESIAN_POINT('',(1.02156145370655E-15,16.6839156193816,-28.));
#583=CARTESIAN_POINT('',(0.,0.,-28.));
#584=CARTESIAN_POINT('',(16.6839156193816,0.,-28.));
#585=CARTESIAN_POINT('',(0.,0.,-28.));
#586=CARTESIAN_POINT('',(0.,0.,-26.));
#587=CARTESIAN_POINT('',(13.4339156193816,0.,-26.));
#588=CARTESIAN_POINT('',(0.,0.,-26.));
#589=CARTESIAN_POINT('',(-6.00000007661082,-3.81789111599147E-23,-26.));
#590=CARTESIAN_POINT('',(-6.0000000417877,5.00000000000002,-26.));
#591=CARTESIAN_POINT('',(-6.00000004178771,-5.,-26.));
#592=CARTESIAN_POINT('',(6.00000004178771,-4.99999991642454,-26.));
#593=CARTESIAN_POINT('',(6.00000004178771,-4.99999991642458,-26.));
#594=CARTESIAN_POINT('',(6.0000000069646,0.,-26.));
#595=CARTESIAN_POINT('',(6.0000000069646,4.99999991642458,-26.));
#596=CARTESIAN_POINT('',(6.0000000069646,4.99999991642458,-26.));
#597=CARTESIAN_POINT('',(6.0000000069646,0.,-28.4394543358193));
#598=CARTESIAN_POINT('',(6.00000002126181,-2.05283372525577,-28.4394543358193));
#599=CARTESIAN_POINT('',(6.00000002126181,-2.05283372525581,-28.4394543358193));
#600=CARTESIAN_POINT('',(-6.00000006231361,-2.05283380883123,-28.4394543358193));
#601=CARTESIAN_POINT('',(-6.00000007661082,-3.81789111599147E-23,-28.4394543358193));
#602=CARTESIAN_POINT('',(-6.0000000623136,2.05283380883125,-28.4394543358193));
#603=CARTESIAN_POINT('',(6.00000002126181,2.05283372525581,-28.4394543358193));
#604=CARTESIAN_POINT('',(6.0000000069646,2.05283372525581,-28.4394543358193));
#605=CARTESIAN_POINT('',(6.0000000069646,0.,-28.4394543358193));
#606=CARTESIAN_POINT('',(6.0000000069646,0.,-25.4394543358193));
#607=CARTESIAN_POINT('',(6.00000002126181,-2.05283372525581,-25.4394543358193));
#608=CARTESIAN_POINT('',(6.0000000069646,2.0528337252558,-25.4394543358193));
#609=CARTESIAN_POINT('',(5.99999998643871,2.05283372525581,-25.4394543358193));
#610=CARTESIAN_POINT('',(-6.0000000623136,2.05283380883125,-25.4394543358193));
#611=CARTESIAN_POINT('',(6.00000002126181,-2.05283372525577,-25.4394543358193));
#612=CARTESIAN_POINT('',(-6.00000006231361,-2.05283380883123,-25.4394543358193));
#613=CARTESIAN_POINT('',(-6.00000007661082,-3.81789111599147E-23,-25.4394543358193));
#614=MECHANICAL_DESIGN_GEOMETRIC_PRESENTATION_REPRESENTATION('',(#348),
#615);
#615=(
GEOMETRIC_REPRESENTATION_CONTEXT(3)
GLOBAL_UNCERTAINTY_ASSIGNED_CONTEXT((#616))
GLOBAL_UNIT_ASSIGNED_CONTEXT((#619,#618,#617))
REPRESENTATION_CONTEXT('SN 9024.1-03 ALB LED RD (102476557)',
'TOP_LEVEL_ASSEMBLY_PART')
);
#616=UNCERTAINTY_MEASURE_WITH_UNIT(LENGTH_MEASURE(0.005),#619,
'DISTANCE_ACCURACY_VALUE','Maximum Tolerance applied to model');
#617=(
NAMED_UNIT(*)
SI_UNIT($,.STERADIAN.)
SOLID_ANGLE_UNIT()
);
#618=(
NAMED_UNIT(*)
PLANE_ANGLE_UNIT()
SI_UNIT($,.RADIAN.)
);
#619=(
LENGTH_UNIT()
NAMED_UNIT(*)
SI_UNIT(.MILLI.,.METRE.)
);
#620=PRODUCT_DEFINITION_SHAPE('','',#621);
#621=PRODUCT_DEFINITION('','',#623,#622);
#622=PRODUCT_DEFINITION_CONTEXT('',#629,'design');
#623=PRODUCT_DEFINITION_FORMATION_WITH_SPECIFIED_SOURCE('','',#625,
 .NOT_KNOWN.);
#624=PRODUCT_RELATED_PRODUCT_CATEGORY('','',(#625));
#625=PRODUCT('SN 9024.1-03 ALB LED RD (102476557)',
'SN 9024.1-03 ALB LED RD (102476557)',
'SN 9024.1-03 ALB LED RD (102476557)',(#627));
#626=PRODUCT_CATEGORY('','');
#627=PRODUCT_CONTEXT('',#629,'mechanical');
#628=APPLICATION_PROTOCOL_DEFINITION('international standard',
'automotive_design',2010,#629);
#629=APPLICATION_CONTEXT(
'core data for automotive mechanical design processes');
ENDSEC;
END-ISO-10303-21;
