ISO-10303-21;
HEADER;
/* Generated by software containing ST-Developer
 * from STEP Tools, Inc. (www.steptools.com) 
 */
/* OPTION: strings as raw bytes, not using required /X/ escapes */

FILE_DESCRIPTION(
/* description */ ('Unknown'),
/* implementation_level */ '2;1');

FILE_NAME(
/* name */ 'SN 9024.1-03 ALB LED SQ',
/* time_stamp */ '2023-10-30T14:01:56+01:00',
/* author */ ('Unknown'),
/* organization */ ('Unknown'),
/* preprocessor_version */ 'ST-DEVELOPER v18.102',
/* originating_system */ 'Solid Edge',
/* authorisation */ 'Unknown');

FILE_SCHEMA (('AUTOMOTIVE_DESIGN {1 0 10303 214 3 1 1}'));
ENDSEC;

DATA;
#10=PROPERTY_DEFINITION_REPRESENTATION(#14,#12);
#11=PROPERTY_DEFINITION_REPRESENTATION(#15,#13);
#12=REPRESENTATION('',(#16),#617);
#13=REPRESENTATION('',(#17),#617);
#14=PROPERTY_DEFINITION('pmi validation property','',#622);
#15=PROPERTY_DEFINITION('pmi validation property','',#622);
#16=VALUE_REPRESENTATION_ITEM('number of annotations',COUNT_MEASURE(0.));
#17=VALUE_REPRESENTATION_ITEM('number of views',COUNT_MEASURE(0.));
#18=SHAPE_REPRESENTATION_RELATIONSHIP('','',#371,#19);
#19=ADVANCED_BREP_SHAPE_REPRESENTATION('',(#369),#617);
#20=DEGENERATE_TOROIDAL_SURFACE('',#401,2.,3.,.T.);
#21=DEGENERATE_TOROIDAL_SURFACE('',#408,2.,3.,.T.);
#22=PLANE('',#376);
#23=PLANE('',#380);
#24=PLANE('',#384);
#25=PLANE('',#388);
#26=PLANE('',#389);
#27=PLANE('',#390);
#28=PLANE('',#391);
#29=PLANE('',#392);
#30=PLANE('',#393);
#31=PLANE('',#394);
#32=PLANE('',#395);
#33=PLANE('',#398);
#34=CIRCLE('',#374,2.);
#35=CIRCLE('',#375,2.);
#36=CIRCLE('',#378,2.);
#37=CIRCLE('',#379,2.);
#38=CIRCLE('',#382,2.);
#39=CIRCLE('',#383,2.);
#40=CIRCLE('',#386,2.);
#41=CIRCLE('',#387,2.);
#42=CIRCLE('',#396,5.);
#43=CIRCLE('',#397,5.);
#44=CIRCLE('',#399,2.);
#45=CIRCLE('',#400,2.);
#46=CIRCLE('',#402,3.);
#47=CIRCLE('',#403,3.);
#48=CIRCLE('',#405,3.);
#49=CIRCLE('',#407,3.);
#50=ORIENTED_EDGE('',*,*,#146,.F.);
#51=ORIENTED_EDGE('',*,*,#147,.T.);
#52=ORIENTED_EDGE('',*,*,#148,.T.);
#53=ORIENTED_EDGE('',*,*,#149,.F.);
#54=ORIENTED_EDGE('',*,*,#148,.F.);
#55=ORIENTED_EDGE('',*,*,#150,.T.);
#56=ORIENTED_EDGE('',*,*,#151,.T.);
#57=ORIENTED_EDGE('',*,*,#152,.F.);
#58=ORIENTED_EDGE('',*,*,#151,.F.);
#59=ORIENTED_EDGE('',*,*,#153,.T.);
#60=ORIENTED_EDGE('',*,*,#154,.T.);
#61=ORIENTED_EDGE('',*,*,#155,.F.);
#62=ORIENTED_EDGE('',*,*,#154,.F.);
#63=ORIENTED_EDGE('',*,*,#156,.T.);
#64=ORIENTED_EDGE('',*,*,#157,.T.);
#65=ORIENTED_EDGE('',*,*,#158,.F.);
#66=ORIENTED_EDGE('',*,*,#157,.F.);
#67=ORIENTED_EDGE('',*,*,#159,.T.);
#68=ORIENTED_EDGE('',*,*,#160,.T.);
#69=ORIENTED_EDGE('',*,*,#161,.F.);
#70=ORIENTED_EDGE('',*,*,#160,.F.);
#71=ORIENTED_EDGE('',*,*,#162,.T.);
#72=ORIENTED_EDGE('',*,*,#163,.T.);
#73=ORIENTED_EDGE('',*,*,#164,.F.);
#74=ORIENTED_EDGE('',*,*,#163,.F.);
#75=ORIENTED_EDGE('',*,*,#165,.T.);
#76=ORIENTED_EDGE('',*,*,#166,.T.);
#77=ORIENTED_EDGE('',*,*,#167,.F.);
#78=ORIENTED_EDGE('',*,*,#166,.F.);
#79=ORIENTED_EDGE('',*,*,#168,.T.);
#80=ORIENTED_EDGE('',*,*,#146,.T.);
#81=ORIENTED_EDGE('',*,*,#169,.F.);
#82=ORIENTED_EDGE('',*,*,#149,.T.);
#83=ORIENTED_EDGE('',*,*,#152,.T.);
#84=ORIENTED_EDGE('',*,*,#155,.T.);
#85=ORIENTED_EDGE('',*,*,#158,.T.);
#86=ORIENTED_EDGE('',*,*,#161,.T.);
#87=ORIENTED_EDGE('',*,*,#164,.T.);
#88=ORIENTED_EDGE('',*,*,#167,.T.);
#89=ORIENTED_EDGE('',*,*,#169,.T.);
#90=ORIENTED_EDGE('',*,*,#170,.F.);
#91=ORIENTED_EDGE('',*,*,#171,.F.);
#92=ORIENTED_EDGE('',*,*,#172,.T.);
#93=ORIENTED_EDGE('',*,*,#173,.T.);
#94=ORIENTED_EDGE('',*,*,#174,.F.);
#95=ORIENTED_EDGE('',*,*,#173,.F.);
#96=ORIENTED_EDGE('',*,*,#175,.T.);
#97=ORIENTED_EDGE('',*,*,#176,.T.);
#98=ORIENTED_EDGE('',*,*,#177,.F.);
#99=ORIENTED_EDGE('',*,*,#176,.F.);
#100=ORIENTED_EDGE('',*,*,#178,.T.);
#101=ORIENTED_EDGE('',*,*,#179,.T.);
#102=ORIENTED_EDGE('',*,*,#180,.F.);
#103=ORIENTED_EDGE('',*,*,#179,.F.);
#104=ORIENTED_EDGE('',*,*,#181,.T.);
#105=ORIENTED_EDGE('',*,*,#171,.T.);
#106=ORIENTED_EDGE('',*,*,#147,.F.);
#107=ORIENTED_EDGE('',*,*,#168,.F.);
#108=ORIENTED_EDGE('',*,*,#165,.F.);
#109=ORIENTED_EDGE('',*,*,#162,.F.);
#110=ORIENTED_EDGE('',*,*,#159,.F.);
#111=ORIENTED_EDGE('',*,*,#156,.F.);
#112=ORIENTED_EDGE('',*,*,#153,.F.);
#113=ORIENTED_EDGE('',*,*,#150,.F.);
#114=ORIENTED_EDGE('',*,*,#172,.F.);
#115=ORIENTED_EDGE('',*,*,#181,.F.);
#116=ORIENTED_EDGE('',*,*,#178,.F.);
#117=ORIENTED_EDGE('',*,*,#175,.F.);
#118=ORIENTED_EDGE('',*,*,#182,.T.);
#119=ORIENTED_EDGE('',*,*,#183,.T.);
#120=ORIENTED_EDGE('',*,*,#184,.T.);
#121=ORIENTED_EDGE('',*,*,#185,.T.);
#122=ORIENTED_EDGE('',*,*,#170,.T.);
#123=ORIENTED_EDGE('',*,*,#174,.T.);
#124=ORIENTED_EDGE('',*,*,#177,.T.);
#125=ORIENTED_EDGE('',*,*,#180,.T.);
#126=ORIENTED_EDGE('',*,*,#186,.T.);
#127=ORIENTED_EDGE('',*,*,#187,.T.);
#128=ORIENTED_EDGE('',*,*,#188,.T.);
#129=ORIENTED_EDGE('',*,*,#189,.T.);
#130=ORIENTED_EDGE('',*,*,#190,.F.);
#131=ORIENTED_EDGE('',*,*,#189,.F.);
#132=ORIENTED_EDGE('',*,*,#191,.F.);
#133=ORIENTED_EDGE('',*,*,#184,.F.);
#134=ORIENTED_EDGE('',*,*,#191,.T.);
#135=ORIENTED_EDGE('',*,*,#188,.F.);
#136=ORIENTED_EDGE('',*,*,#192,.F.);
#137=ORIENTED_EDGE('',*,*,#185,.F.);
#138=ORIENTED_EDGE('',*,*,#190,.T.);
#139=ORIENTED_EDGE('',*,*,#183,.F.);
#140=ORIENTED_EDGE('',*,*,#193,.F.);
#141=ORIENTED_EDGE('',*,*,#186,.F.);
#142=ORIENTED_EDGE('',*,*,#192,.T.);
#143=ORIENTED_EDGE('',*,*,#187,.F.);
#144=ORIENTED_EDGE('',*,*,#193,.T.);
#145=ORIENTED_EDGE('',*,*,#182,.F.);
#146=EDGE_CURVE('',#194,#195,#226,.T.);
#147=EDGE_CURVE('',#194,#196,#34,.F.);
#148=EDGE_CURVE('',#196,#197,#227,.T.);
#149=EDGE_CURVE('',#195,#197,#35,.T.);
#150=EDGE_CURVE('',#196,#198,#228,.T.);
#151=EDGE_CURVE('',#198,#199,#229,.T.);
#152=EDGE_CURVE('',#197,#199,#230,.T.);
#153=EDGE_CURVE('',#198,#200,#36,.F.);
#154=EDGE_CURVE('',#200,#201,#231,.T.);
#155=EDGE_CURVE('',#199,#201,#37,.T.);
#156=EDGE_CURVE('',#200,#202,#232,.T.);
#157=EDGE_CURVE('',#202,#203,#233,.T.);
#158=EDGE_CURVE('',#201,#203,#234,.T.);
#159=EDGE_CURVE('',#202,#204,#38,.F.);
#160=EDGE_CURVE('',#204,#205,#235,.T.);
#161=EDGE_CURVE('',#203,#205,#39,.T.);
#162=EDGE_CURVE('',#204,#206,#236,.T.);
#163=EDGE_CURVE('',#206,#207,#237,.T.);
#164=EDGE_CURVE('',#205,#207,#238,.T.);
#165=EDGE_CURVE('',#206,#208,#40,.F.);
#166=EDGE_CURVE('',#208,#209,#239,.T.);
#167=EDGE_CURVE('',#207,#209,#41,.T.);
#168=EDGE_CURVE('',#208,#194,#240,.T.);
#169=EDGE_CURVE('',#209,#195,#241,.T.);
#170=EDGE_CURVE('',#210,#211,#242,.T.);
#171=EDGE_CURVE('',#212,#210,#243,.T.);
#172=EDGE_CURVE('',#212,#213,#244,.T.);
#173=EDGE_CURVE('',#213,#211,#245,.T.);
#174=EDGE_CURVE('',#211,#214,#246,.T.);
#175=EDGE_CURVE('',#213,#215,#247,.T.);
#176=EDGE_CURVE('',#215,#214,#248,.T.);
#177=EDGE_CURVE('',#214,#216,#249,.T.);
#178=EDGE_CURVE('',#215,#217,#250,.T.);
#179=EDGE_CURVE('',#217,#216,#251,.T.);
#180=EDGE_CURVE('',#216,#210,#252,.T.);
#181=EDGE_CURVE('',#217,#212,#253,.T.);
#182=EDGE_CURVE('',#218,#219,#42,.T.);
#183=EDGE_CURVE('',#219,#220,#254,.T.);
#184=EDGE_CURVE('',#220,#221,#43,.T.);
#185=EDGE_CURVE('',#221,#218,#255,.T.);
#186=EDGE_CURVE('',#222,#223,#256,.F.);
#187=EDGE_CURVE('',#223,#224,#44,.F.);
#188=EDGE_CURVE('',#224,#225,#257,.F.);
#189=EDGE_CURVE('',#225,#222,#45,.F.);
#190=EDGE_CURVE('',#222,#220,#46,.T.);
#191=EDGE_CURVE('',#221,#225,#47,.T.);
#192=EDGE_CURVE('',#218,#224,#48,.T.);
#193=EDGE_CURVE('',#223,#219,#49,.T.);
#194=VERTEX_POINT('',#518);
#195=VERTEX_POINT('',#519);
#196=VERTEX_POINT('',#521);
#197=VERTEX_POINT('',#523);
#198=VERTEX_POINT('',#527);
#199=VERTEX_POINT('',#529);
#200=VERTEX_POINT('',#533);
#201=VERTEX_POINT('',#535);
#202=VERTEX_POINT('',#539);
#203=VERTEX_POINT('',#541);
#204=VERTEX_POINT('',#545);
#205=VERTEX_POINT('',#547);
#206=VERTEX_POINT('',#551);
#207=VERTEX_POINT('',#553);
#208=VERTEX_POINT('',#557);
#209=VERTEX_POINT('',#559);
#210=VERTEX_POINT('',#567);
#211=VERTEX_POINT('',#568);
#212=VERTEX_POINT('',#570);
#213=VERTEX_POINT('',#572);
#214=VERTEX_POINT('',#576);
#215=VERTEX_POINT('',#578);
#216=VERTEX_POINT('',#582);
#217=VERTEX_POINT('',#584);
#218=VERTEX_POINT('',#592);
#219=VERTEX_POINT('',#593);
#220=VERTEX_POINT('',#595);
#221=VERTEX_POINT('',#597);
#222=VERTEX_POINT('',#601);
#223=VERTEX_POINT('',#602);
#224=VERTEX_POINT('',#604);
#225=VERTEX_POINT('',#606);
#226=LINE('',#517,#258);
#227=LINE('',#522,#259);
#228=LINE('',#526,#260);
#229=LINE('',#528,#261);
#230=LINE('',#530,#262);
#231=LINE('',#534,#263);
#232=LINE('',#538,#264);
#233=LINE('',#540,#265);
#234=LINE('',#542,#266);
#235=LINE('',#546,#267);
#236=LINE('',#550,#268);
#237=LINE('',#552,#269);
#238=LINE('',#554,#270);
#239=LINE('',#558,#271);
#240=LINE('',#562,#272);
#241=LINE('',#563,#273);
#242=LINE('',#566,#274);
#243=LINE('',#569,#275);
#244=LINE('',#571,#276);
#245=LINE('',#573,#277);
#246=LINE('',#575,#278);
#247=LINE('',#577,#279);
#248=LINE('',#579,#280);
#249=LINE('',#581,#281);
#250=LINE('',#583,#282);
#251=LINE('',#585,#283);
#252=LINE('',#587,#284);
#253=LINE('',#588,#285);
#254=LINE('',#594,#286);
#255=LINE('',#598,#287);
#256=LINE('',#600,#288);
#257=LINE('',#605,#289);
#258=VECTOR('',#413,1000.);
#259=VECTOR('',#416,1000.);
#260=VECTOR('',#421,1000.);
#261=VECTOR('',#422,1000.);
#262=VECTOR('',#423,1000.);
#263=VECTOR('',#428,1000.);
#264=VECTOR('',#433,1000.);
#265=VECTOR('',#434,1000.);
#266=VECTOR('',#435,1000.);
#267=VECTOR('',#440,1000.);
#268=VECTOR('',#445,1000.);
#269=VECTOR('',#446,1000.);
#270=VECTOR('',#447,1000.);
#271=VECTOR('',#452,1000.);
#272=VECTOR('',#457,1000.);
#273=VECTOR('',#458,1000.);
#274=VECTOR('',#463,1000.);
#275=VECTOR('',#464,1000.);
#276=VECTOR('',#465,1000.);
#277=VECTOR('',#466,1000.);
#278=VECTOR('',#469,1000.);
#279=VECTOR('',#470,1000.);
#280=VECTOR('',#471,1000.);
#281=VECTOR('',#474,1000.);
#282=VECTOR('',#475,1000.);
#283=VECTOR('',#476,1000.);
#284=VECTOR('',#479,1000.);
#285=VECTOR('',#480,1000.);
#286=VECTOR('',#487,1000.);
#287=VECTOR('',#490,1000.);
#288=VECTOR('',#493,1000.);
#289=VECTOR('',#496,1000.);
#290=EDGE_LOOP('',(#50,#51,#52,#53));
#291=EDGE_LOOP('',(#54,#55,#56,#57));
#292=EDGE_LOOP('',(#58,#59,#60,#61));
#293=EDGE_LOOP('',(#62,#63,#64,#65));
#294=EDGE_LOOP('',(#66,#67,#68,#69));
#295=EDGE_LOOP('',(#70,#71,#72,#73));
#296=EDGE_LOOP('',(#74,#75,#76,#77));
#297=EDGE_LOOP('',(#78,#79,#80,#81));
#298=EDGE_LOOP('',(#82,#83,#84,#85,#86,#87,#88,#89));
#299=EDGE_LOOP('',(#90,#91,#92,#93));
#300=EDGE_LOOP('',(#94,#95,#96,#97));
#301=EDGE_LOOP('',(#98,#99,#100,#101));
#302=EDGE_LOOP('',(#102,#103,#104,#105));
#303=EDGE_LOOP('',(#106,#107,#108,#109,#110,#111,#112,#113));
#304=EDGE_LOOP('',(#114,#115,#116,#117));
#305=EDGE_LOOP('',(#118,#119,#120,#121));
#306=EDGE_LOOP('',(#122,#123,#124,#125));
#307=EDGE_LOOP('',(#126,#127,#128,#129));
#308=EDGE_LOOP('',(#130,#131,#132,#133));
#309=EDGE_LOOP('',(#134,#135,#136,#137));
#310=EDGE_LOOP('',(#138,#139,#140,#141));
#311=EDGE_LOOP('',(#142,#143,#144,#145));
#312=FACE_BOUND('',#290,.T.);
#313=FACE_BOUND('',#291,.T.);
#314=FACE_BOUND('',#292,.T.);
#315=FACE_BOUND('',#293,.T.);
#316=FACE_BOUND('',#294,.T.);
#317=FACE_BOUND('',#295,.T.);
#318=FACE_BOUND('',#296,.T.);
#319=FACE_BOUND('',#297,.T.);
#320=FACE_BOUND('',#298,.T.);
#321=FACE_BOUND('',#299,.T.);
#322=FACE_BOUND('',#300,.T.);
#323=FACE_BOUND('',#301,.T.);
#324=FACE_BOUND('',#302,.T.);
#325=FACE_BOUND('',#303,.T.);
#326=FACE_BOUND('',#304,.T.);
#327=FACE_BOUND('',#305,.T.);
#328=FACE_BOUND('',#306,.T.);
#329=FACE_BOUND('',#307,.T.);
#330=FACE_BOUND('',#308,.T.);
#331=FACE_BOUND('',#309,.T.);
#332=FACE_BOUND('',#310,.T.);
#333=FACE_BOUND('',#311,.T.);
#334=CYLINDRICAL_SURFACE('',#373,2.);
#335=CYLINDRICAL_SURFACE('',#377,2.);
#336=CYLINDRICAL_SURFACE('',#381,2.);
#337=CYLINDRICAL_SURFACE('',#385,2.);
#338=CYLINDRICAL_SURFACE('',#404,3.);
#339=CYLINDRICAL_SURFACE('',#406,3.);
#340=ADVANCED_FACE('',(#312),#334,.T.);
#341=ADVANCED_FACE('',(#313),#22,.T.);
#342=ADVANCED_FACE('',(#314),#335,.T.);
#343=ADVANCED_FACE('',(#315),#23,.T.);
#344=ADVANCED_FACE('',(#316),#336,.T.);
#345=ADVANCED_FACE('',(#317),#24,.T.);
#346=ADVANCED_FACE('',(#318),#337,.T.);
#347=ADVANCED_FACE('',(#319),#25,.T.);
#348=ADVANCED_FACE('',(#320),#26,.T.);
#349=ADVANCED_FACE('',(#321),#27,.T.);
#350=ADVANCED_FACE('',(#322),#28,.T.);
#351=ADVANCED_FACE('',(#323),#29,.T.);
#352=ADVANCED_FACE('',(#324),#30,.T.);
#353=ADVANCED_FACE('',(#325,#326),#31,.F.);
#354=ADVANCED_FACE('',(#327,#328),#32,.F.);
#355=ADVANCED_FACE('',(#329),#33,.F.);
#356=ADVANCED_FACE('',(#330),#20,.T.);
#357=ADVANCED_FACE('',(#331),#338,.T.);
#358=ADVANCED_FACE('',(#332),#339,.T.);
#359=ADVANCED_FACE('',(#333),#21,.T.);
#360=CLOSED_SHELL('',(#340,#341,#342,#343,#344,#345,#346,#347,#348,#349,
#350,#351,#352,#353,#354,#355,#356,#357,#358,#359));
#361=STYLED_ITEM('',(#362),#369);
#362=PRESENTATION_STYLE_ASSIGNMENT((#363));
#363=SURFACE_STYLE_USAGE(.BOTH.,#364);
#364=SURFACE_SIDE_STYLE('',(#365));
#365=SURFACE_STYLE_FILL_AREA(#366);
#366=FILL_AREA_STYLE('',(#367));
#367=FILL_AREA_STYLE_COLOUR('',#368);
#368=COLOUR_RGB('',0.506983280181885,0.531564235687256,0.550000011920929);
#369=MANIFOLD_SOLID_BREP('',#360);
#370=SHAPE_DEFINITION_REPRESENTATION(#622,#371);
#371=SHAPE_REPRESENTATION('SN 9024.1-03 ALB LED RD (102476557)',(#372),
#617);
#372=AXIS2_PLACEMENT_3D('',#515,#409,#410);
#373=AXIS2_PLACEMENT_3D('',#516,#411,#412);
#374=AXIS2_PLACEMENT_3D('',#520,#414,#415);
#375=AXIS2_PLACEMENT_3D('',#524,#417,#418);
#376=AXIS2_PLACEMENT_3D('',#525,#419,#420);
#377=AXIS2_PLACEMENT_3D('',#531,#424,#425);
#378=AXIS2_PLACEMENT_3D('',#532,#426,#427);
#379=AXIS2_PLACEMENT_3D('',#536,#429,#430);
#380=AXIS2_PLACEMENT_3D('',#537,#431,#432);
#381=AXIS2_PLACEMENT_3D('',#543,#436,#437);
#382=AXIS2_PLACEMENT_3D('',#544,#438,#439);
#383=AXIS2_PLACEMENT_3D('',#548,#441,#442);
#384=AXIS2_PLACEMENT_3D('',#549,#443,#444);
#385=AXIS2_PLACEMENT_3D('',#555,#448,#449);
#386=AXIS2_PLACEMENT_3D('',#556,#450,#451);
#387=AXIS2_PLACEMENT_3D('',#560,#453,#454);
#388=AXIS2_PLACEMENT_3D('',#561,#455,#456);
#389=AXIS2_PLACEMENT_3D('',#564,#459,#460);
#390=AXIS2_PLACEMENT_3D('',#565,#461,#462);
#391=AXIS2_PLACEMENT_3D('',#574,#467,#468);
#392=AXIS2_PLACEMENT_3D('',#580,#472,#473);
#393=AXIS2_PLACEMENT_3D('',#586,#477,#478);
#394=AXIS2_PLACEMENT_3D('',#589,#481,#482);
#395=AXIS2_PLACEMENT_3D('',#590,#483,#484);
#396=AXIS2_PLACEMENT_3D('',#591,#485,#486);
#397=AXIS2_PLACEMENT_3D('',#596,#488,#489);
#398=AXIS2_PLACEMENT_3D('',#599,#491,#492);
#399=AXIS2_PLACEMENT_3D('',#603,#494,#495);
#400=AXIS2_PLACEMENT_3D('',#607,#497,#498);
#401=AXIS2_PLACEMENT_3D('',#608,#499,#500);
#402=AXIS2_PLACEMENT_3D('',#609,#501,#502);
#403=AXIS2_PLACEMENT_3D('',#610,#503,#504);
#404=AXIS2_PLACEMENT_3D('',#611,#505,#506);
#405=AXIS2_PLACEMENT_3D('',#612,#507,#508);
#406=AXIS2_PLACEMENT_3D('',#613,#509,#510);
#407=AXIS2_PLACEMENT_3D('',#614,#511,#512);
#408=AXIS2_PLACEMENT_3D('',#615,#513,#514);
#409=DIRECTION('',(0.,0.,1.));
#410=DIRECTION('',(1.,0.,0.));
#411=DIRECTION('',(0.,0.,1.));
#412=DIRECTION('',(1.,0.,0.));
#413=DIRECTION('',(0.,0.,1.));
#414=DIRECTION('',(0.,0.,-1.));
#415=DIRECTION('',(-1.,0.,0.));
#416=DIRECTION('',(0.,0.,1.));
#417=DIRECTION('',(0.,0.,1.));
#418=DIRECTION('',(-1.,0.,0.));
#419=DIRECTION('',(1.,0.,0.));
#420=DIRECTION('',(0.,0.,-1.));
#421=DIRECTION('',(0.,1.,0.));
#422=DIRECTION('',(0.,0.,1.));
#423=DIRECTION('',(0.,1.,0.));
#424=DIRECTION('',(0.,0.,1.));
#425=DIRECTION('',(1.,0.,0.));
#426=DIRECTION('',(0.,0.,-1.));
#427=DIRECTION('',(-1.,0.,0.));
#428=DIRECTION('',(0.,0.,1.));
#429=DIRECTION('',(0.,0.,1.));
#430=DIRECTION('',(0.,-1.,0.));
#431=DIRECTION('',(0.,1.,0.));
#432=DIRECTION('',(0.,0.,1.));
#433=DIRECTION('',(-1.,0.,0.));
#434=DIRECTION('',(0.,0.,1.));
#435=DIRECTION('',(-1.,0.,0.));
#436=DIRECTION('',(0.,0.,1.));
#437=DIRECTION('',(1.,0.,0.));
#438=DIRECTION('',(0.,0.,-1.));
#439=DIRECTION('',(-1.,0.,0.));
#440=DIRECTION('',(0.,0.,1.));
#441=DIRECTION('',(0.,0.,1.));
#442=DIRECTION('',(1.,0.,0.));
#443=DIRECTION('',(-1.,0.,0.));
#444=DIRECTION('',(0.,0.,1.));
#445=DIRECTION('',(0.,-1.,0.));
#446=DIRECTION('',(0.,0.,1.));
#447=DIRECTION('',(0.,-1.,0.));
#448=DIRECTION('',(0.,0.,1.));
#449=DIRECTION('',(1.,0.,0.));
#450=DIRECTION('',(0.,0.,-1.));
#451=DIRECTION('',(-1.,0.,0.));
#452=DIRECTION('',(0.,0.,1.));
#453=DIRECTION('',(0.,0.,1.));
#454=DIRECTION('',(0.,1.,0.));
#455=DIRECTION('',(0.,-1.,0.));
#456=DIRECTION('',(0.,0.,-1.));
#457=DIRECTION('',(1.,0.,0.));
#458=DIRECTION('',(1.,0.,0.));
#459=DIRECTION('',(0.,0.,1.));
#460=DIRECTION('',(1.,0.,0.));
#461=DIRECTION('',(0.,-1.,0.));
#462=DIRECTION('',(0.,0.,-1.));
#463=DIRECTION('',(-1.,0.,0.));
#464=DIRECTION('',(0.,0.,-1.));
#465=DIRECTION('',(-1.,0.,0.));
#466=DIRECTION('',(0.,0.,-1.));
#467=DIRECTION('',(-1.,0.,0.));
#468=DIRECTION('',(0.,0.,1.));
#469=DIRECTION('',(0.,1.,0.));
#470=DIRECTION('',(0.,1.,0.));
#471=DIRECTION('',(0.,0.,-1.));
#472=DIRECTION('',(0.,1.,0.));
#473=DIRECTION('',(0.,0.,1.));
#474=DIRECTION('',(1.,0.,0.));
#475=DIRECTION('',(1.,0.,0.));
#476=DIRECTION('',(0.,0.,-1.));
#477=DIRECTION('',(1.,0.,0.));
#478=DIRECTION('',(0.,0.,-1.));
#479=DIRECTION('',(0.,-1.,0.));
#480=DIRECTION('',(0.,-1.,0.));
#481=DIRECTION('',(0.,0.,-1.));
#482=DIRECTION('',(-1.,0.,0.));
#483=DIRECTION('',(0.,0.,1.));
#484=DIRECTION('',(1.,0.,0.));
#485=DIRECTION('',(0.,0.,1.));
#486=DIRECTION('',(0.,1.,0.));
#487=DIRECTION('',(1.,-1.44560289664734E-16,0.));
#488=DIRECTION('',(0.,0.,1.));
#489=DIRECTION('',(0.,-1.,0.));
#490=DIRECTION('',(-1.,2.16840434497101E-16,0.));
#491=DIRECTION('',(0.,0.,1.));
#492=DIRECTION('',(1.,0.,0.));
#493=DIRECTION('',(1.,-1.44560289664734E-16,0.));
#494=DIRECTION('',(0.,0.,1.));
#495=DIRECTION('',(1.,0.,0.));
#496=DIRECTION('',(-1.,2.16840434497101E-16,0.));
#497=DIRECTION('',(0.,0.,1.));
#498=DIRECTION('',(1.,0.,0.));
#499=DIRECTION('',(0.,0.,1.));
#500=DIRECTION('',(1.,0.,0.));
#501=DIRECTION('',(-1.,2.89120579329468E-16,0.));
#502=DIRECTION('',(-2.89120579329468E-16,-1.,0.));
#503=DIRECTION('',(-1.,2.89120579329468E-16,0.));
#504=DIRECTION('',(-2.89120579329468E-16,-1.,0.));
#505=DIRECTION('',(1.,-2.16840434497101E-16,0.));
#506=DIRECTION('',(2.16840434497101E-16,1.,0.));
#507=DIRECTION('',(-1.,2.89120579329468E-16,0.));
#508=DIRECTION('',(-2.89120579329468E-16,-1.,0.));
#509=DIRECTION('',(-1.,1.44560289664734E-16,0.));
#510=DIRECTION('',(-1.44560289664734E-16,-1.,0.));
#511=DIRECTION('',(-1.,2.89120579329468E-16,0.));
#512=DIRECTION('',(-2.89120579329468E-16,-1.,0.));
#513=DIRECTION('',(0.,0.,1.));
#514=DIRECTION('',(1.,0.,0.));
#515=CARTESIAN_POINT('',(0.,0.,0.));
#516=CARTESIAN_POINT('',(9.5,-9.5,-20.));
#517=CARTESIAN_POINT('',(7.5,-9.5,-20.));
#518=CARTESIAN_POINT('',(7.5,-9.5,-18.5));
#519=CARTESIAN_POINT('',(7.5,-9.5,0.));
#520=CARTESIAN_POINT('',(9.5,-9.5,-18.5));
#521=CARTESIAN_POINT('',(9.5,-7.5,-18.5));
#522=CARTESIAN_POINT('',(9.5,-7.5,-20.));
#523=CARTESIAN_POINT('',(9.5,-7.5,0.));
#524=CARTESIAN_POINT('',(9.5,-9.5,0.));
#525=CARTESIAN_POINT('',(9.5,-7.5,-20.));
#526=CARTESIAN_POINT('',(9.5,-7.5,-18.5));
#527=CARTESIAN_POINT('',(9.5,7.5,-18.5));
#528=CARTESIAN_POINT('',(9.5,7.5,-20.));
#529=CARTESIAN_POINT('',(9.5,7.5,0.));
#530=CARTESIAN_POINT('',(9.5,-7.5,0.));
#531=CARTESIAN_POINT('',(9.5,9.5,-20.));
#532=CARTESIAN_POINT('',(9.5,9.5,-18.5));
#533=CARTESIAN_POINT('',(7.5,9.5,-18.5));
#534=CARTESIAN_POINT('',(7.5,9.5,-20.));
#535=CARTESIAN_POINT('',(7.5,9.5,0.));
#536=CARTESIAN_POINT('',(9.5,9.5,0.));
#537=CARTESIAN_POINT('',(7.5,9.5,-20.));
#538=CARTESIAN_POINT('',(7.5,9.5,-18.5));
#539=CARTESIAN_POINT('',(-7.5,9.5,-18.5));
#540=CARTESIAN_POINT('',(-7.5,9.5,-20.));
#541=CARTESIAN_POINT('',(-7.5,9.5,0.));
#542=CARTESIAN_POINT('',(7.5,9.5,0.));
#543=CARTESIAN_POINT('',(-9.5,9.5,-20.));
#544=CARTESIAN_POINT('',(-9.5,9.5,-18.5));
#545=CARTESIAN_POINT('',(-9.5,7.5,-18.5));
#546=CARTESIAN_POINT('',(-9.5,7.5,-20.));
#547=CARTESIAN_POINT('',(-9.5,7.5,0.));
#548=CARTESIAN_POINT('',(-9.5,9.5,0.));
#549=CARTESIAN_POINT('',(-9.5,7.5,-20.));
#550=CARTESIAN_POINT('',(-9.5,7.5,-18.5));
#551=CARTESIAN_POINT('',(-9.5,-7.5,-18.5));
#552=CARTESIAN_POINT('',(-9.5,-7.5,-20.));
#553=CARTESIAN_POINT('',(-9.5,-7.5,0.));
#554=CARTESIAN_POINT('',(-9.5,7.5,0.));
#555=CARTESIAN_POINT('',(-9.5,-9.5,-20.));
#556=CARTESIAN_POINT('',(-9.5,-9.5,-18.5));
#557=CARTESIAN_POINT('',(-7.5,-9.5,-18.5));
#558=CARTESIAN_POINT('',(-7.5,-9.5,-20.));
#559=CARTESIAN_POINT('',(-7.5,-9.5,0.));
#560=CARTESIAN_POINT('',(-9.5,-9.5,0.));
#561=CARTESIAN_POINT('',(-7.5,-9.5,-20.));
#562=CARTESIAN_POINT('',(-7.5,-9.5,-18.5));
#563=CARTESIAN_POINT('',(-7.5,-9.5,0.));
#564=CARTESIAN_POINT('',(9.5,-9.5,0.));
#565=CARTESIAN_POINT('',(22.5,-22.5,-18.5));
#566=CARTESIAN_POINT('',(22.5,-22.5,-20.));
#567=CARTESIAN_POINT('',(22.5,-22.5,-20.));
#568=CARTESIAN_POINT('',(-22.5,-22.5,-20.));
#569=CARTESIAN_POINT('',(22.5,-22.5,-18.5));
#570=CARTESIAN_POINT('',(22.5,-22.5,-18.5));
#571=CARTESIAN_POINT('',(22.5,-22.5,-18.5));
#572=CARTESIAN_POINT('',(-22.5,-22.5,-18.5));
#573=CARTESIAN_POINT('',(-22.5,-22.5,-18.5));
#574=CARTESIAN_POINT('',(-22.5,-22.5,-18.5));
#575=CARTESIAN_POINT('',(-22.5,-22.5,-20.));
#576=CARTESIAN_POINT('',(-22.5,22.5,-20.));
#577=CARTESIAN_POINT('',(-22.5,-22.5,-18.5));
#578=CARTESIAN_POINT('',(-22.5,22.5,-18.5));
#579=CARTESIAN_POINT('',(-22.5,22.5,-18.5));
#580=CARTESIAN_POINT('',(-22.5,22.5,-18.5));
#581=CARTESIAN_POINT('',(-22.5,22.5,-20.));
#582=CARTESIAN_POINT('',(22.5,22.5,-20.));
#583=CARTESIAN_POINT('',(-22.5,22.5,-18.5));
#584=CARTESIAN_POINT('',(22.5,22.5,-18.5));
#585=CARTESIAN_POINT('',(22.5,22.5,-18.5));
#586=CARTESIAN_POINT('',(22.5,22.5,-18.5));
#587=CARTESIAN_POINT('',(22.5,22.5,-20.));
#588=CARTESIAN_POINT('',(22.5,22.5,-18.5));
#589=CARTESIAN_POINT('',(0.,0.,-18.5));
#590=CARTESIAN_POINT('',(9.5,-9.5,-20.));
#591=CARTESIAN_POINT('',(-6.,3.32107310998128E-15,-20.));
#592=CARTESIAN_POINT('',(-6.,5.,-20.));
#593=CARTESIAN_POINT('',(-6.,-5.,-20.));
#594=CARTESIAN_POINT('',(6.,-5.,-20.));
#595=CARTESIAN_POINT('',(6.,-5.,-20.));
#596=CARTESIAN_POINT('',(6.,0.,-20.));
#597=CARTESIAN_POINT('',(6.,5.,-20.));
#598=CARTESIAN_POINT('',(6.,5.,-20.));
#599=CARTESIAN_POINT('',(6.,0.,-23.));
#600=CARTESIAN_POINT('',(-6.,-2.,-23.));
#601=CARTESIAN_POINT('',(6.,-2.,-23.));
#602=CARTESIAN_POINT('',(-6.,-2.,-23.));
#603=CARTESIAN_POINT('',(-6.,3.32107310998128E-15,-23.));
#604=CARTESIAN_POINT('',(-6.,2.,-23.));
#605=CARTESIAN_POINT('',(6.,2.,-23.));
#606=CARTESIAN_POINT('',(6.,2.,-23.));
#607=CARTESIAN_POINT('',(6.,0.,-23.));
#608=CARTESIAN_POINT('',(6.,0.,-20.));
#609=CARTESIAN_POINT('',(6.,-2.,-20.));
#610=CARTESIAN_POINT('',(6.,2.,-20.));
#611=CARTESIAN_POINT('',(6.,2.,-20.));
#612=CARTESIAN_POINT('',(-6.,2.,-20.));
#613=CARTESIAN_POINT('',(6.,-2.,-20.));
#614=CARTESIAN_POINT('',(-6.,-2.,-20.));
#615=CARTESIAN_POINT('',(-6.,3.32107310998128E-15,-20.));
#616=MECHANICAL_DESIGN_GEOMETRIC_PRESENTATION_REPRESENTATION('',(#361),
#617);
#617=(
GEOMETRIC_REPRESENTATION_CONTEXT(3)
GLOBAL_UNCERTAINTY_ASSIGNED_CONTEXT((#618))
GLOBAL_UNIT_ASSIGNED_CONTEXT((#621,#620,#619))
REPRESENTATION_CONTEXT('SN 9024.1-03 ALB LED RD (102476557)',
'TOP_LEVEL_ASSEMBLY_PART')
);
#618=UNCERTAINTY_MEASURE_WITH_UNIT(LENGTH_MEASURE(0.005),#621,
'DISTANCE_ACCURACY_VALUE','Maximum Tolerance applied to model');
#619=(
NAMED_UNIT(*)
SI_UNIT($,.STERADIAN.)
SOLID_ANGLE_UNIT()
);
#620=(
NAMED_UNIT(*)
PLANE_ANGLE_UNIT()
SI_UNIT($,.RADIAN.)
);
#621=(
LENGTH_UNIT()
NAMED_UNIT(*)
SI_UNIT(.MILLI.,.METRE.)
);
#622=PRODUCT_DEFINITION_SHAPE('','',#623);
#623=PRODUCT_DEFINITION('','',#625,#624);
#624=PRODUCT_DEFINITION_CONTEXT('',#631,'design');
#625=PRODUCT_DEFINITION_FORMATION_WITH_SPECIFIED_SOURCE('','',#627,
 .NOT_KNOWN.);
#626=PRODUCT_RELATED_PRODUCT_CATEGORY('','',(#627));
#627=PRODUCT('SN 9024.1-03 ALB LED RD (102476557)',
'SN 9024.1-03 ALB LED RD (102476557)',
'SN 9024.1-03 ALB LED RD (102476557)',(#629));
#628=PRODUCT_CATEGORY('','');
#629=PRODUCT_CONTEXT('',#631,'mechanical');
#630=APPLICATION_PROTOCOL_DEFINITION('international standard',
'automotive_design',2010,#631);
#631=APPLICATION_CONTEXT(
'core data for automotive mechanical design processes');
ENDSEC;
END-ISO-10303-21;
