ISO-10303-21;
HEADER;
/* Generated by software containing ST-Developer
 * from STEP Tools, Inc. (www.steptools.com) 
 */
/* OPTION: strings as raw bytes, not using required /X/ escapes */

FILE_DESCRIPTION(
/* description */ ('Unknown'),
/* implementation_level */ '2;1');

FILE_NAME(
/* name */ 'SN 9024.1-03 AS LED RD',
/* time_stamp */ '2023-10-30T12:06:45+01:00',
/* author */ ('Unknown'),
/* organization */ ('Unknown'),
/* preprocessor_version */ 'ST-DEVELOPER v18.102',
/* originating_system */ 'Solid Edge',
/* authorisation */ 'Unknown');

FILE_SCHEMA (('AUTOMOTIVE_DESIGN {1 0 10303 214 3 1 1}'));
ENDSEC;

DATA;
#10=PROPERTY_DEFINITION_REPRESENTATION(#14,#12);
#11=PROPERTY_DEFINITION_REPRESENTATION(#15,#13);
#12=REPRESENTATION('',(#16),#525);
#13=REPRESENTATION('',(#17),#525);
#14=PROPERTY_DEFINITION('pmi validation property','',#530);
#15=PROPERTY_DEFINITION('pmi validation property','',#530);
#16=VALUE_REPRESENTATION_ITEM('number of annotations',COUNT_MEASURE(0.));
#17=VALUE_REPRESENTATION_ITEM('number of views',COUNT_MEASURE(0.));
#18=SHAPE_REPRESENTATION_RELATIONSHIP('','',#309,#19);
#19=ADVANCED_BREP_SHAPE_REPRESENTATION('',(#307),#525);
#20=TOROIDAL_SURFACE('',#348,5.1,1.);
#21=CONICAL_SURFACE('',#334,22.5324977327052,0.0872664625997192);
#22=CONICAL_SURFACE('',#336,22.515,0.785398163397447);
#23=CONICAL_SURFACE('',#340,16.6839156193816,1.01914134426635);
#24=PLANE('',#314);
#25=PLANE('',#318);
#26=PLANE('',#322);
#27=PLANE('',#326);
#28=PLANE('',#327);
#29=PLANE('',#328);
#30=PLANE('',#332);
#31=PLANE('',#338);
#32=PLANE('',#342);
#33=PLANE('',#346);
#34=LINE('',#448,#50);
#35=LINE('',#452,#51);
#36=LINE('',#454,#52);
#37=LINE('',#456,#53);
#38=LINE('',#458,#54);
#39=LINE('',#464,#55);
#40=LINE('',#466,#56);
#41=LINE('',#468,#57);
#42=LINE('',#470,#58);
#43=LINE('',#476,#59);
#44=LINE('',#478,#60);
#45=LINE('',#480,#61);
#46=LINE('',#482,#62);
#47=LINE('',#488,#63);
#48=LINE('',#490,#64);
#49=LINE('',#491,#65);
#50=VECTOR('',#355,1000.);
#51=VECTOR('',#358,1000.);
#52=VECTOR('',#361,1000.);
#53=VECTOR('',#362,1000.);
#54=VECTOR('',#363,1000.);
#55=VECTOR('',#370,1000.);
#56=VECTOR('',#373,1000.);
#57=VECTOR('',#374,1000.);
#58=VECTOR('',#375,1000.);
#59=VECTOR('',#382,1000.);
#60=VECTOR('',#385,1000.);
#61=VECTOR('',#386,1000.);
#62=VECTOR('',#387,1000.);
#63=VECTOR('',#394,1000.);
#64=VECTOR('',#397,1000.);
#65=VECTOR('',#398,1000.);
#66=ORIENTED_EDGE('',*,*,#134,.F.);
#67=ORIENTED_EDGE('',*,*,#135,.F.);
#68=ORIENTED_EDGE('',*,*,#136,.T.);
#69=ORIENTED_EDGE('',*,*,#137,.T.);
#70=ORIENTED_EDGE('',*,*,#138,.F.);
#71=ORIENTED_EDGE('',*,*,#137,.F.);
#72=ORIENTED_EDGE('',*,*,#139,.T.);
#73=ORIENTED_EDGE('',*,*,#140,.T.);
#74=ORIENTED_EDGE('',*,*,#141,.F.);
#75=ORIENTED_EDGE('',*,*,#140,.F.);
#76=ORIENTED_EDGE('',*,*,#142,.T.);
#77=ORIENTED_EDGE('',*,*,#143,.T.);
#78=ORIENTED_EDGE('',*,*,#144,.F.);
#79=ORIENTED_EDGE('',*,*,#143,.F.);
#80=ORIENTED_EDGE('',*,*,#145,.T.);
#81=ORIENTED_EDGE('',*,*,#146,.T.);
#82=ORIENTED_EDGE('',*,*,#147,.F.);
#83=ORIENTED_EDGE('',*,*,#146,.F.);
#84=ORIENTED_EDGE('',*,*,#148,.T.);
#85=ORIENTED_EDGE('',*,*,#149,.T.);
#86=ORIENTED_EDGE('',*,*,#150,.F.);
#87=ORIENTED_EDGE('',*,*,#149,.F.);
#88=ORIENTED_EDGE('',*,*,#151,.T.);
#89=ORIENTED_EDGE('',*,*,#152,.T.);
#90=ORIENTED_EDGE('',*,*,#153,.F.);
#91=ORIENTED_EDGE('',*,*,#152,.F.);
#92=ORIENTED_EDGE('',*,*,#154,.T.);
#93=ORIENTED_EDGE('',*,*,#155,.T.);
#94=ORIENTED_EDGE('',*,*,#156,.F.);
#95=ORIENTED_EDGE('',*,*,#155,.F.);
#96=ORIENTED_EDGE('',*,*,#157,.T.);
#97=ORIENTED_EDGE('',*,*,#135,.T.);
#98=ORIENTED_EDGE('',*,*,#134,.T.);
#99=ORIENTED_EDGE('',*,*,#138,.T.);
#100=ORIENTED_EDGE('',*,*,#141,.T.);
#101=ORIENTED_EDGE('',*,*,#144,.T.);
#102=ORIENTED_EDGE('',*,*,#147,.T.);
#103=ORIENTED_EDGE('',*,*,#150,.T.);
#104=ORIENTED_EDGE('',*,*,#153,.T.);
#105=ORIENTED_EDGE('',*,*,#156,.T.);
#106=ORIENTED_EDGE('',*,*,#158,.T.);
#107=ORIENTED_EDGE('',*,*,#136,.F.);
#108=ORIENTED_EDGE('',*,*,#157,.F.);
#109=ORIENTED_EDGE('',*,*,#154,.F.);
#110=ORIENTED_EDGE('',*,*,#151,.F.);
#111=ORIENTED_EDGE('',*,*,#148,.F.);
#112=ORIENTED_EDGE('',*,*,#145,.F.);
#113=ORIENTED_EDGE('',*,*,#142,.F.);
#114=ORIENTED_EDGE('',*,*,#139,.F.);
#115=ORIENTED_EDGE('',*,*,#159,.F.);
#116=ORIENTED_EDGE('',*,*,#158,.F.);
#117=ORIENTED_EDGE('',*,*,#160,.T.);
#118=ORIENTED_EDGE('',*,*,#159,.T.);
#119=ORIENTED_EDGE('',*,*,#161,.T.);
#120=ORIENTED_EDGE('',*,*,#160,.F.);
#121=ORIENTED_EDGE('',*,*,#162,.T.);
#122=ORIENTED_EDGE('',*,*,#161,.F.);
#123=ORIENTED_EDGE('',*,*,#163,.T.);
#124=ORIENTED_EDGE('',*,*,#162,.F.);
#125=ORIENTED_EDGE('',*,*,#164,.T.);
#126=ORIENTED_EDGE('',*,*,#163,.F.);
#127=ORIENTED_EDGE('',*,*,#165,.T.);
#128=ORIENTED_EDGE('',*,*,#164,.F.);
#129=ORIENTED_EDGE('',*,*,#166,.T.);
#130=ORIENTED_EDGE('',*,*,#165,.F.);
#131=ORIENTED_EDGE('',*,*,#167,.T.);
#132=ORIENTED_EDGE('',*,*,#167,.F.);
#133=ORIENTED_EDGE('',*,*,#166,.F.);
#134=EDGE_CURVE('',#168,#169,#194,.T.);
#135=EDGE_CURVE('',#170,#168,#34,.T.);
#136=EDGE_CURVE('',#170,#171,#195,.T.);
#137=EDGE_CURVE('',#171,#169,#35,.T.);
#138=EDGE_CURVE('',#169,#172,#36,.T.);
#139=EDGE_CURVE('',#171,#173,#37,.T.);
#140=EDGE_CURVE('',#173,#172,#38,.T.);
#141=EDGE_CURVE('',#172,#174,#196,.T.);
#142=EDGE_CURVE('',#173,#175,#197,.T.);
#143=EDGE_CURVE('',#175,#174,#39,.T.);
#144=EDGE_CURVE('',#174,#176,#40,.T.);
#145=EDGE_CURVE('',#175,#177,#41,.T.);
#146=EDGE_CURVE('',#177,#176,#42,.T.);
#147=EDGE_CURVE('',#176,#178,#198,.T.);
#148=EDGE_CURVE('',#177,#179,#199,.T.);
#149=EDGE_CURVE('',#179,#178,#43,.T.);
#150=EDGE_CURVE('',#178,#180,#44,.T.);
#151=EDGE_CURVE('',#179,#181,#45,.T.);
#152=EDGE_CURVE('',#181,#180,#46,.T.);
#153=EDGE_CURVE('',#180,#182,#200,.T.);
#154=EDGE_CURVE('',#181,#183,#201,.T.);
#155=EDGE_CURVE('',#183,#182,#47,.T.);
#156=EDGE_CURVE('',#182,#168,#48,.T.);
#157=EDGE_CURVE('',#183,#170,#49,.T.);
#158=EDGE_CURVE('',#184,#184,#202,.T.);
#159=EDGE_CURVE('',#185,#185,#203,.F.);
#160=EDGE_CURVE('',#186,#186,#204,.T.);
#161=EDGE_CURVE('',#187,#187,#205,.T.);
#162=EDGE_CURVE('',#188,#188,#206,.T.);
#163=EDGE_CURVE('',#189,#189,#207,.T.);
#164=EDGE_CURVE('',#190,#190,#208,.T.);
#165=EDGE_CURVE('',#191,#191,#209,.T.);
#166=EDGE_CURVE('',#192,#192,#210,.T.);
#167=EDGE_CURVE('',#193,#193,#211,.F.);
#168=VERTEX_POINT('',#446);
#169=VERTEX_POINT('',#447);
#170=VERTEX_POINT('',#449);
#171=VERTEX_POINT('',#451);
#172=VERTEX_POINT('',#455);
#173=VERTEX_POINT('',#457);
#174=VERTEX_POINT('',#461);
#175=VERTEX_POINT('',#463);
#176=VERTEX_POINT('',#467);
#177=VERTEX_POINT('',#469);
#178=VERTEX_POINT('',#473);
#179=VERTEX_POINT('',#475);
#180=VERTEX_POINT('',#479);
#181=VERTEX_POINT('',#481);
#182=VERTEX_POINT('',#485);
#183=VERTEX_POINT('',#487);
#184=VERTEX_POINT('',#495);
#185=VERTEX_POINT('',#498);
#186=VERTEX_POINT('',#501);
#187=VERTEX_POINT('',#504);
#188=VERTEX_POINT('',#507);
#189=VERTEX_POINT('',#510);
#190=VERTEX_POINT('',#513);
#191=VERTEX_POINT('',#516);
#192=VERTEX_POINT('',#519);
#193=VERTEX_POINT('',#522);
#194=CIRCLE('',#312,2.);
#195=CIRCLE('',#313,2.);
#196=CIRCLE('',#316,2.);
#197=CIRCLE('',#317,2.);
#198=CIRCLE('',#320,2.);
#199=CIRCLE('',#321,2.);
#200=CIRCLE('',#324,2.);
#201=CIRCLE('',#325,2.);
#202=CIRCLE('',#329,18.);
#203=CIRCLE('',#331,18.);
#204=CIRCLE('',#333,22.5324977327052);
#205=CIRCLE('',#335,22.515);
#206=CIRCLE('',#337,20.515);
#207=CIRCLE('',#339,16.6839156193816);
#208=CIRCLE('',#341,13.4339156193816);
#209=CIRCLE('',#343,6.1);
#210=CIRCLE('',#345,6.1);
#211=CIRCLE('',#347,5.1);
#212=EDGE_LOOP('',(#66,#67,#68,#69));
#213=EDGE_LOOP('',(#70,#71,#72,#73));
#214=EDGE_LOOP('',(#74,#75,#76,#77));
#215=EDGE_LOOP('',(#78,#79,#80,#81));
#216=EDGE_LOOP('',(#82,#83,#84,#85));
#217=EDGE_LOOP('',(#86,#87,#88,#89));
#218=EDGE_LOOP('',(#90,#91,#92,#93));
#219=EDGE_LOOP('',(#94,#95,#96,#97));
#220=EDGE_LOOP('',(#98,#99,#100,#101,#102,#103,#104,#105));
#221=EDGE_LOOP('',(#106));
#222=EDGE_LOOP('',(#107,#108,#109,#110,#111,#112,#113,#114));
#223=EDGE_LOOP('',(#115));
#224=EDGE_LOOP('',(#116));
#225=EDGE_LOOP('',(#117));
#226=EDGE_LOOP('',(#118));
#227=EDGE_LOOP('',(#119));
#228=EDGE_LOOP('',(#120));
#229=EDGE_LOOP('',(#121));
#230=EDGE_LOOP('',(#122));
#231=EDGE_LOOP('',(#123));
#232=EDGE_LOOP('',(#124));
#233=EDGE_LOOP('',(#125));
#234=EDGE_LOOP('',(#126));
#235=EDGE_LOOP('',(#127));
#236=EDGE_LOOP('',(#128));
#237=EDGE_LOOP('',(#129));
#238=EDGE_LOOP('',(#130));
#239=EDGE_LOOP('',(#131));
#240=EDGE_LOOP('',(#132));
#241=EDGE_LOOP('',(#133));
#242=FACE_BOUND('',#212,.T.);
#243=FACE_BOUND('',#213,.T.);
#244=FACE_BOUND('',#214,.T.);
#245=FACE_BOUND('',#215,.T.);
#246=FACE_BOUND('',#216,.T.);
#247=FACE_BOUND('',#217,.T.);
#248=FACE_BOUND('',#218,.T.);
#249=FACE_BOUND('',#219,.T.);
#250=FACE_BOUND('',#220,.T.);
#251=FACE_BOUND('',#221,.T.);
#252=FACE_BOUND('',#222,.T.);
#253=FACE_BOUND('',#223,.T.);
#254=FACE_BOUND('',#224,.T.);
#255=FACE_BOUND('',#225,.T.);
#256=FACE_BOUND('',#226,.T.);
#257=FACE_BOUND('',#227,.T.);
#258=FACE_BOUND('',#228,.T.);
#259=FACE_BOUND('',#229,.T.);
#260=FACE_BOUND('',#230,.T.);
#261=FACE_BOUND('',#231,.T.);
#262=FACE_BOUND('',#232,.T.);
#263=FACE_BOUND('',#233,.T.);
#264=FACE_BOUND('',#234,.T.);
#265=FACE_BOUND('',#235,.T.);
#266=FACE_BOUND('',#236,.T.);
#267=FACE_BOUND('',#237,.T.);
#268=FACE_BOUND('',#238,.T.);
#269=FACE_BOUND('',#239,.T.);
#270=FACE_BOUND('',#240,.T.);
#271=FACE_BOUND('',#241,.T.);
#272=CYLINDRICAL_SURFACE('',#311,2.);
#273=CYLINDRICAL_SURFACE('',#315,2.);
#274=CYLINDRICAL_SURFACE('',#319,2.);
#275=CYLINDRICAL_SURFACE('',#323,2.);
#276=CYLINDRICAL_SURFACE('',#330,18.);
#277=CYLINDRICAL_SURFACE('',#344,6.1);
#278=ADVANCED_FACE('',(#242),#272,.T.);
#279=ADVANCED_FACE('',(#243),#24,.T.);
#280=ADVANCED_FACE('',(#244),#273,.T.);
#281=ADVANCED_FACE('',(#245),#25,.T.);
#282=ADVANCED_FACE('',(#246),#274,.T.);
#283=ADVANCED_FACE('',(#247),#26,.T.);
#284=ADVANCED_FACE('',(#248),#275,.T.);
#285=ADVANCED_FACE('',(#249),#27,.T.);
#286=ADVANCED_FACE('',(#250),#28,.T.);
#287=ADVANCED_FACE('',(#251,#252),#29,.T.);
#288=ADVANCED_FACE('',(#253,#254),#276,.T.);
#289=ADVANCED_FACE('',(#255,#256),#30,.T.);
#290=ADVANCED_FACE('',(#257,#258),#21,.T.);
#291=ADVANCED_FACE('',(#259,#260),#22,.T.);
#292=ADVANCED_FACE('',(#261,#262),#31,.T.);
#293=ADVANCED_FACE('',(#263,#264),#23,.F.);
#294=ADVANCED_FACE('',(#265,#266),#32,.F.);
#295=ADVANCED_FACE('',(#267,#268),#277,.T.);
#296=ADVANCED_FACE('',(#269),#33,.F.);
#297=ADVANCED_FACE('',(#270,#271),#20,.T.);
#298=CLOSED_SHELL('',(#278,#279,#280,#281,#282,#283,#284,#285,#286,#287,
#288,#289,#290,#291,#292,#293,#294,#295,#296,#297));
#299=STYLED_ITEM('',(#300),#307);
#300=PRESENTATION_STYLE_ASSIGNMENT((#301));
#301=SURFACE_STYLE_USAGE(.BOTH.,#302);
#302=SURFACE_SIDE_STYLE('',(#303));
#303=SURFACE_STYLE_FILL_AREA(#304);
#304=FILL_AREA_STYLE('',(#305));
#305=FILL_AREA_STYLE_COLOUR('',#306);
#306=COLOUR_RGB('',0.506983280181885,0.531564235687256,0.550000011920929);
#307=MANIFOLD_SOLID_BREP('',#298);
#308=SHAPE_DEFINITION_REPRESENTATION(#530,#309);
#309=SHAPE_REPRESENTATION('SN 9024.1-03 ALB LED RD (102476557)',(#310),
#525);
#310=AXIS2_PLACEMENT_3D('',#443,#349,#350);
#311=AXIS2_PLACEMENT_3D('',#444,#351,#352);
#312=AXIS2_PLACEMENT_3D('',#445,#353,#354);
#313=AXIS2_PLACEMENT_3D('',#450,#356,#357);
#314=AXIS2_PLACEMENT_3D('',#453,#359,#360);
#315=AXIS2_PLACEMENT_3D('',#459,#364,#365);
#316=AXIS2_PLACEMENT_3D('',#460,#366,#367);
#317=AXIS2_PLACEMENT_3D('',#462,#368,#369);
#318=AXIS2_PLACEMENT_3D('',#465,#371,#372);
#319=AXIS2_PLACEMENT_3D('',#471,#376,#377);
#320=AXIS2_PLACEMENT_3D('',#472,#378,#379);
#321=AXIS2_PLACEMENT_3D('',#474,#380,#381);
#322=AXIS2_PLACEMENT_3D('',#477,#383,#384);
#323=AXIS2_PLACEMENT_3D('',#483,#388,#389);
#324=AXIS2_PLACEMENT_3D('',#484,#390,#391);
#325=AXIS2_PLACEMENT_3D('',#486,#392,#393);
#326=AXIS2_PLACEMENT_3D('',#489,#395,#396);
#327=AXIS2_PLACEMENT_3D('',#492,#399,#400);
#328=AXIS2_PLACEMENT_3D('',#493,#401,#402);
#329=AXIS2_PLACEMENT_3D('',#494,#403,#404);
#330=AXIS2_PLACEMENT_3D('',#496,#405,#406);
#331=AXIS2_PLACEMENT_3D('',#497,#407,#408);
#332=AXIS2_PLACEMENT_3D('',#499,#409,#410);
#333=AXIS2_PLACEMENT_3D('',#500,#411,#412);
#334=AXIS2_PLACEMENT_3D('',#502,#413,#414);
#335=AXIS2_PLACEMENT_3D('',#503,#415,#416);
#336=AXIS2_PLACEMENT_3D('',#505,#417,#418);
#337=AXIS2_PLACEMENT_3D('',#506,#419,#420);
#338=AXIS2_PLACEMENT_3D('',#508,#421,#422);
#339=AXIS2_PLACEMENT_3D('',#509,#423,#424);
#340=AXIS2_PLACEMENT_3D('',#511,#425,#426);
#341=AXIS2_PLACEMENT_3D('',#512,#427,#428);
#342=AXIS2_PLACEMENT_3D('',#514,#429,#430);
#343=AXIS2_PLACEMENT_3D('',#515,#431,#432);
#344=AXIS2_PLACEMENT_3D('',#517,#433,#434);
#345=AXIS2_PLACEMENT_3D('',#518,#435,#436);
#346=AXIS2_PLACEMENT_3D('',#520,#437,#438);
#347=AXIS2_PLACEMENT_3D('',#521,#439,#440);
#348=AXIS2_PLACEMENT_3D('',#523,#441,#442);
#349=DIRECTION('',(0.,0.,1.));
#350=DIRECTION('',(1.,0.,0.));
#351=DIRECTION('',(0.,0.,1.));
#352=DIRECTION('',(1.,0.,0.));
#353=DIRECTION('',(0.,0.,1.));
#354=DIRECTION('',(-1.,0.,0.));
#355=DIRECTION('',(0.,0.,1.));
#356=DIRECTION('',(0.,0.,1.));
#357=DIRECTION('',(-1.,0.,0.));
#358=DIRECTION('',(0.,0.,1.));
#359=DIRECTION('',(1.,0.,0.));
#360=DIRECTION('',(0.,0.,-1.));
#361=DIRECTION('',(0.,1.,0.));
#362=DIRECTION('',(0.,1.,0.));
#363=DIRECTION('',(0.,0.,1.));
#364=DIRECTION('',(0.,0.,1.));
#365=DIRECTION('',(1.,0.,0.));
#366=DIRECTION('',(0.,0.,1.));
#367=DIRECTION('',(0.,-1.,0.));
#368=DIRECTION('',(0.,0.,1.));
#369=DIRECTION('',(0.,-1.,0.));
#370=DIRECTION('',(0.,0.,1.));
#371=DIRECTION('',(0.,1.,0.));
#372=DIRECTION('',(0.,0.,1.));
#373=DIRECTION('',(-1.,0.,0.));
#374=DIRECTION('',(-1.,0.,0.));
#375=DIRECTION('',(0.,0.,1.));
#376=DIRECTION('',(0.,0.,1.));
#377=DIRECTION('',(1.,0.,0.));
#378=DIRECTION('',(0.,0.,1.));
#379=DIRECTION('',(1.,0.,0.));
#380=DIRECTION('',(0.,0.,1.));
#381=DIRECTION('',(1.,0.,0.));
#382=DIRECTION('',(0.,0.,1.));
#383=DIRECTION('',(-1.,0.,0.));
#384=DIRECTION('',(0.,0.,1.));
#385=DIRECTION('',(0.,-1.,0.));
#386=DIRECTION('',(0.,-1.,0.));
#387=DIRECTION('',(0.,0.,1.));
#388=DIRECTION('',(0.,0.,1.));
#389=DIRECTION('',(1.,0.,0.));
#390=DIRECTION('',(0.,0.,1.));
#391=DIRECTION('',(0.,1.,0.));
#392=DIRECTION('',(0.,0.,1.));
#393=DIRECTION('',(0.,1.,0.));
#394=DIRECTION('',(0.,0.,1.));
#395=DIRECTION('',(0.,-1.,0.));
#396=DIRECTION('',(0.,0.,-1.));
#397=DIRECTION('',(1.,0.,0.));
#398=DIRECTION('',(1.,0.,0.));
#399=DIRECTION('',(0.,0.,1.));
#400=DIRECTION('',(1.,0.,0.));
#401=DIRECTION('',(0.,0.,1.));
#402=DIRECTION('',(1.,0.,0.));
#403=DIRECTION('',(0.,0.,1.));
#404=DIRECTION('',(0.,1.,0.));
#405=DIRECTION('',(0.,0.,1.));
#406=DIRECTION('',(1.,0.,0.));
#407=DIRECTION('',(0.,0.,1.));
#408=DIRECTION('',(1.,0.,0.));
#409=DIRECTION('',(0.,0.,1.));
#410=DIRECTION('',(1.,0.,0.));
#411=DIRECTION('',(0.,0.,1.));
#412=DIRECTION('',(1.,0.,0.));
#413=DIRECTION('',(0.,0.,1.));
#414=DIRECTION('',(1.,0.,0.));
#415=DIRECTION('',(0.,0.,1.));
#416=DIRECTION('',(1.,0.,0.));
#417=DIRECTION('',(0.,0.,1.));
#418=DIRECTION('',(1.,0.,0.));
#419=DIRECTION('',(0.,0.,1.));
#420=DIRECTION('',(1.,0.,0.));
#421=DIRECTION('',(0.,0.,-1.));
#422=DIRECTION('',(-1.,0.,0.));
#423=DIRECTION('',(0.,0.,1.));
#424=DIRECTION('',(1.,0.,0.));
#425=DIRECTION('',(0.,0.,-1.));
#426=DIRECTION('',(-1.,0.,0.));
#427=DIRECTION('',(0.,0.,1.));
#428=DIRECTION('',(1.,0.,0.));
#429=DIRECTION('',(0.,0.,1.));
#430=DIRECTION('',(1.,0.,0.));
#431=DIRECTION('',(0.,0.,1.));
#432=DIRECTION('',(0.,1.,0.));
#433=DIRECTION('',(0.,0.,1.));
#434=DIRECTION('',(1.,0.,0.));
#435=DIRECTION('',(0.,0.,1.));
#436=DIRECTION('',(1.,0.,0.));
#437=DIRECTION('',(0.,0.,1.));
#438=DIRECTION('',(1.,0.,0.));
#439=DIRECTION('',(0.,0.,1.));
#440=DIRECTION('',(1.,0.,0.));
#441=DIRECTION('',(0.,0.,1.));
#442=DIRECTION('',(1.,0.,0.));
#443=CARTESIAN_POINT('',(0.,0.,0.));
#444=CARTESIAN_POINT('',(9.5,-9.5,-20.));
#445=CARTESIAN_POINT('',(9.5,-9.5,0.));
#446=CARTESIAN_POINT('',(7.5,-9.5,0.));
#447=CARTESIAN_POINT('',(9.5,-7.5,0.));
#448=CARTESIAN_POINT('',(7.5,-9.5,-20.));
#449=CARTESIAN_POINT('',(7.5,-9.5,-20.));
#450=CARTESIAN_POINT('',(9.5,-9.5,-20.));
#451=CARTESIAN_POINT('',(9.5,-7.5,-20.));
#452=CARTESIAN_POINT('',(9.5,-7.5,-20.));
#453=CARTESIAN_POINT('',(9.5,-7.5,-20.));
#454=CARTESIAN_POINT('',(9.5,-7.5,0.));
#455=CARTESIAN_POINT('',(9.5,7.5,0.));
#456=CARTESIAN_POINT('',(9.5,-7.5,-20.));
#457=CARTESIAN_POINT('',(9.5,7.5,-20.));
#458=CARTESIAN_POINT('',(9.5,7.5,-20.));
#459=CARTESIAN_POINT('',(9.5,9.5,-20.));
#460=CARTESIAN_POINT('',(9.5,9.5,0.));
#461=CARTESIAN_POINT('',(7.5,9.5,0.));
#462=CARTESIAN_POINT('',(9.5,9.5,-20.));
#463=CARTESIAN_POINT('',(7.5,9.5,-20.));
#464=CARTESIAN_POINT('',(7.5,9.5,-20.));
#465=CARTESIAN_POINT('',(7.5,9.5,-20.));
#466=CARTESIAN_POINT('',(7.5,9.5,0.));
#467=CARTESIAN_POINT('',(-7.5,9.5,0.));
#468=CARTESIAN_POINT('',(7.5,9.5,-20.));
#469=CARTESIAN_POINT('',(-7.5,9.5,-20.));
#470=CARTESIAN_POINT('',(-7.5,9.5,-20.));
#471=CARTESIAN_POINT('',(-9.5,9.5,-20.));
#472=CARTESIAN_POINT('',(-9.5,9.5,0.));
#473=CARTESIAN_POINT('',(-9.5,7.5,0.));
#474=CARTESIAN_POINT('',(-9.5,9.5,-20.));
#475=CARTESIAN_POINT('',(-9.5,7.5,-20.));
#476=CARTESIAN_POINT('',(-9.5,7.5,-20.));
#477=CARTESIAN_POINT('',(-9.5,7.5,-20.));
#478=CARTESIAN_POINT('',(-9.5,7.5,0.));
#479=CARTESIAN_POINT('',(-9.5,-7.5,0.));
#480=CARTESIAN_POINT('',(-9.5,7.5,-20.));
#481=CARTESIAN_POINT('',(-9.5,-7.5,-20.));
#482=CARTESIAN_POINT('',(-9.5,-7.5,-20.));
#483=CARTESIAN_POINT('',(-9.5,-9.5,-20.));
#484=CARTESIAN_POINT('',(-9.5,-9.5,0.));
#485=CARTESIAN_POINT('',(-7.5,-9.5,0.));
#486=CARTESIAN_POINT('',(-9.5,-9.5,-20.));
#487=CARTESIAN_POINT('',(-7.5,-9.5,-20.));
#488=CARTESIAN_POINT('',(-7.5,-9.5,-20.));
#489=CARTESIAN_POINT('',(-7.5,-9.5,-20.));
#490=CARTESIAN_POINT('',(-7.5,-9.5,0.));
#491=CARTESIAN_POINT('',(-7.5,-9.5,-20.));
#492=CARTESIAN_POINT('',(9.5,-9.5,0.));
#493=CARTESIAN_POINT('',(0.,0.,-20.));
#494=CARTESIAN_POINT('',(0.,0.,-20.));
#495=CARTESIAN_POINT('',(0.,18.,-20.));
#496=CARTESIAN_POINT('',(0.,0.,-26.));
#497=CARTESIAN_POINT('',(0.,0.,-25.8));
#498=CARTESIAN_POINT('',(18.,0.,-25.8));
#499=CARTESIAN_POINT('',(1.37967199454795E-15,22.5324977327052,-25.8));
#500=CARTESIAN_POINT('',(0.,0.,-25.8));
#501=CARTESIAN_POINT('',(22.5324977327052,0.,-25.8));
#502=CARTESIAN_POINT('',(0.,0.,-25.8));
#503=CARTESIAN_POINT('',(0.,0.,-26.));
#504=CARTESIAN_POINT('',(22.515,0.,-26.));
#505=CARTESIAN_POINT('',(0.,0.,-26.));
#506=CARTESIAN_POINT('',(0.,0.,-28.));
#507=CARTESIAN_POINT('',(20.515,0.,-28.));
#508=CARTESIAN_POINT('',(1.02156145370655E-15,16.6839156193816,-28.));
#509=CARTESIAN_POINT('',(0.,0.,-28.));
#510=CARTESIAN_POINT('',(16.6839156193816,0.,-28.));
#511=CARTESIAN_POINT('',(0.,0.,-28.));
#512=CARTESIAN_POINT('',(0.,0.,-26.));
#513=CARTESIAN_POINT('',(13.4339156193816,0.,-26.));
#514=CARTESIAN_POINT('',(0.,0.,-26.));
#515=CARTESIAN_POINT('',(0.,0.,-26.));
#516=CARTESIAN_POINT('',(0.,6.1,-26.));
#517=CARTESIAN_POINT('',(0.,0.,-29.7876563958646));
#518=CARTESIAN_POINT('',(0.,0.,-28.7876563958646));
#519=CARTESIAN_POINT('',(6.1,0.,-28.7876563958646));
#520=CARTESIAN_POINT('',(0.,0.,-29.7876563958646));
#521=CARTESIAN_POINT('',(0.,0.,-29.7876563958646));
#522=CARTESIAN_POINT('',(5.1,0.,-29.7876563958646));
#523=CARTESIAN_POINT('',(0.,0.,-28.7876563958646));
#524=MECHANICAL_DESIGN_GEOMETRIC_PRESENTATION_REPRESENTATION('',(#299),
#525);
#525=(
GEOMETRIC_REPRESENTATION_CONTEXT(3)
GLOBAL_UNCERTAINTY_ASSIGNED_CONTEXT((#526))
GLOBAL_UNIT_ASSIGNED_CONTEXT((#529,#528,#527))
REPRESENTATION_CONTEXT('SN 9024.1-03 ALB LED RD (102476557)',
'TOP_LEVEL_ASSEMBLY_PART')
);
#526=UNCERTAINTY_MEASURE_WITH_UNIT(LENGTH_MEASURE(0.005),#529,
'DISTANCE_ACCURACY_VALUE','Maximum Tolerance applied to model');
#527=(
NAMED_UNIT(*)
SI_UNIT($,.STERADIAN.)
SOLID_ANGLE_UNIT()
);
#528=(
NAMED_UNIT(*)
PLANE_ANGLE_UNIT()
SI_UNIT($,.RADIAN.)
);
#529=(
LENGTH_UNIT()
NAMED_UNIT(*)
SI_UNIT(.MILLI.,.METRE.)
);
#530=PRODUCT_DEFINITION_SHAPE('','',#531);
#531=PRODUCT_DEFINITION('','',#533,#532);
#532=PRODUCT_DEFINITION_CONTEXT('',#539,'design');
#533=PRODUCT_DEFINITION_FORMATION_WITH_SPECIFIED_SOURCE('','',#535,
 .NOT_KNOWN.);
#534=PRODUCT_RELATED_PRODUCT_CATEGORY('','',(#535));
#535=PRODUCT('SN 9024.1-03 ALB LED RD (102476557)',
'SN 9024.1-03 ALB LED RD (102476557)',
'SN 9024.1-03 ALB LED RD (102476557)',(#537));
#536=PRODUCT_CATEGORY('','');
#537=PRODUCT_CONTEXT('',#539,'mechanical');
#538=APPLICATION_PROTOCOL_DEFINITION('international standard',
'automotive_design',2010,#539);
#539=APPLICATION_CONTEXT(
'core data for automotive mechanical design processes');
ENDSEC;
END-ISO-10303-21;
