ISO-10303-21;
HEADER;
/* Generated by software containing ST-Developer
 * from STEP Tools, Inc. (www.steptools.com) 
 */
/* OPTION: strings as raw bytes, not using required /X/ escapes */

FILE_DESCRIPTION(
/* description */ ('Unknown'),
/* implementation_level */ '2;1');

FILE_NAME(
/* name */ 'SN 9024.1-03 AS LED SQ',
/* time_stamp */ '2023-10-30T13:50:03+01:00',
/* author */ ('Unknown'),
/* organization */ ('Unknown'),
/* preprocessor_version */ 'ST-DEVELOPER v18.102',
/* originating_system */ 'Solid Edge',
/* authorisation */ 'Unknown');

FILE_SCHEMA (('AUTOMOTIVE_DESIGN {1 0 10303 214 3 1 1}'));
ENDSEC;

DATA;
#10=PROPERTY_DEFINITION_REPRESENTATION(#14,#12);
#11=PROPERTY_DEFINITION_REPRESENTATION(#15,#13);
#12=REPRESENTATION('',(#16),#527);
#13=REPRESENTATION('',(#17),#527);
#14=PROPERTY_DEFINITION('pmi validation property','',#532);
#15=PROPERTY_DEFINITION('pmi validation property','',#532);
#16=VALUE_REPRESENTATION_ITEM('number of annotations',COUNT_MEASURE(0.));
#17=VALUE_REPRESENTATION_ITEM('number of views',COUNT_MEASURE(0.));
#18=SHAPE_REPRESENTATION_RELATIONSHIP('','',#322,#19);
#19=ADVANCED_BREP_SHAPE_REPRESENTATION('',(#320),#527);
#20=TOROIDAL_SURFACE('',#330,5.1,1.);
#21=CYLINDRICAL_SURFACE('',#326,6.1);
#22=CYLINDRICAL_SURFACE('',#346,2.);
#23=CYLINDRICAL_SURFACE('',#348,2.);
#24=CYLINDRICAL_SURFACE('',#350,2.);
#25=CYLINDRICAL_SURFACE('',#352,2.);
#26=LINE('',#445,#54);
#27=LINE('',#448,#55);
#28=LINE('',#450,#56);
#29=LINE('',#452,#57);
#30=LINE('',#461,#58);
#31=LINE('',#463,#59);
#32=LINE('',#465,#60);
#33=LINE('',#467,#61);
#34=LINE('',#469,#62);
#35=LINE('',#471,#63);
#36=LINE('',#473,#64);
#37=LINE('',#475,#65);
#38=LINE('',#480,#66);
#39=LINE('',#484,#67);
#40=LINE('',#488,#68);
#41=LINE('',#492,#69);
#42=LINE('',#497,#70);
#43=LINE('',#501,#71);
#44=LINE('',#505,#72);
#45=LINE('',#509,#73);
#46=LINE('',#511,#74);
#47=LINE('',#512,#75);
#48=LINE('',#514,#76);
#49=LINE('',#516,#77);
#50=LINE('',#518,#78);
#51=LINE('',#520,#79);
#52=LINE('',#522,#80);
#53=LINE('',#524,#81);
#54=VECTOR('',#359,1000.);
#55=VECTOR('',#360,1000.);
#56=VECTOR('',#361,1000.);
#57=VECTOR('',#362,1000.);
#58=VECTOR('',#375,1000.);
#59=VECTOR('',#376,1000.);
#60=VECTOR('',#377,1000.);
#61=VECTOR('',#380,1000.);
#62=VECTOR('',#381,1000.);
#63=VECTOR('',#384,1000.);
#64=VECTOR('',#385,1000.);
#65=VECTOR('',#388,1000.);
#66=VECTOR('',#393,1000.);
#67=VECTOR('',#396,1000.);
#68=VECTOR('',#399,1000.);
#69=VECTOR('',#402,1000.);
#70=VECTOR('',#407,1000.);
#71=VECTOR('',#410,1000.);
#72=VECTOR('',#413,1000.);
#73=VECTOR('',#416,1000.);
#74=VECTOR('',#419,1000.);
#75=VECTOR('',#420,1000.);
#76=VECTOR('',#423,1000.);
#77=VECTOR('',#426,1000.);
#78=VECTOR('',#429,1000.);
#79=VECTOR('',#432,1000.);
#80=VECTOR('',#435,1000.);
#81=VECTOR('',#438,1000.);
#82=ORIENTED_EDGE('',*,*,#160,.T.);
#83=ORIENTED_EDGE('',*,*,#161,.T.);
#84=ORIENTED_EDGE('',*,*,#162,.T.);
#85=ORIENTED_EDGE('',*,*,#163,.T.);
#86=ORIENTED_EDGE('',*,*,#164,.T.);
#87=ORIENTED_EDGE('',*,*,#165,.T.);
#88=ORIENTED_EDGE('',*,*,#160,.F.);
#89=ORIENTED_EDGE('',*,*,#166,.T.);
#90=ORIENTED_EDGE('',*,*,#166,.F.);
#91=ORIENTED_EDGE('',*,*,#165,.F.);
#92=ORIENTED_EDGE('',*,*,#161,.F.);
#93=ORIENTED_EDGE('',*,*,#167,.F.);
#94=ORIENTED_EDGE('',*,*,#168,.T.);
#95=ORIENTED_EDGE('',*,*,#169,.T.);
#96=ORIENTED_EDGE('',*,*,#162,.F.);
#97=ORIENTED_EDGE('',*,*,#169,.F.);
#98=ORIENTED_EDGE('',*,*,#170,.T.);
#99=ORIENTED_EDGE('',*,*,#171,.T.);
#100=ORIENTED_EDGE('',*,*,#163,.F.);
#101=ORIENTED_EDGE('',*,*,#171,.F.);
#102=ORIENTED_EDGE('',*,*,#172,.T.);
#103=ORIENTED_EDGE('',*,*,#173,.T.);
#104=ORIENTED_EDGE('',*,*,#164,.F.);
#105=ORIENTED_EDGE('',*,*,#173,.F.);
#106=ORIENTED_EDGE('',*,*,#174,.T.);
#107=ORIENTED_EDGE('',*,*,#167,.T.);
#108=ORIENTED_EDGE('',*,*,#175,.F.);
#109=ORIENTED_EDGE('',*,*,#176,.F.);
#110=ORIENTED_EDGE('',*,*,#177,.F.);
#111=ORIENTED_EDGE('',*,*,#178,.F.);
#112=ORIENTED_EDGE('',*,*,#179,.F.);
#113=ORIENTED_EDGE('',*,*,#180,.F.);
#114=ORIENTED_EDGE('',*,*,#181,.F.);
#115=ORIENTED_EDGE('',*,*,#182,.F.);
#116=ORIENTED_EDGE('',*,*,#168,.F.);
#117=ORIENTED_EDGE('',*,*,#174,.F.);
#118=ORIENTED_EDGE('',*,*,#172,.F.);
#119=ORIENTED_EDGE('',*,*,#170,.F.);
#120=ORIENTED_EDGE('',*,*,#183,.T.);
#121=ORIENTED_EDGE('',*,*,#184,.T.);
#122=ORIENTED_EDGE('',*,*,#185,.T.);
#123=ORIENTED_EDGE('',*,*,#186,.T.);
#124=ORIENTED_EDGE('',*,*,#187,.T.);
#125=ORIENTED_EDGE('',*,*,#188,.T.);
#126=ORIENTED_EDGE('',*,*,#189,.T.);
#127=ORIENTED_EDGE('',*,*,#190,.T.);
#128=ORIENTED_EDGE('',*,*,#191,.F.);
#129=ORIENTED_EDGE('',*,*,#176,.T.);
#130=ORIENTED_EDGE('',*,*,#192,.T.);
#131=ORIENTED_EDGE('',*,*,#190,.F.);
#132=ORIENTED_EDGE('',*,*,#193,.F.);
#133=ORIENTED_EDGE('',*,*,#177,.T.);
#134=ORIENTED_EDGE('',*,*,#191,.T.);
#135=ORIENTED_EDGE('',*,*,#189,.F.);
#136=ORIENTED_EDGE('',*,*,#194,.F.);
#137=ORIENTED_EDGE('',*,*,#178,.T.);
#138=ORIENTED_EDGE('',*,*,#193,.T.);
#139=ORIENTED_EDGE('',*,*,#188,.F.);
#140=ORIENTED_EDGE('',*,*,#195,.F.);
#141=ORIENTED_EDGE('',*,*,#179,.T.);
#142=ORIENTED_EDGE('',*,*,#194,.T.);
#143=ORIENTED_EDGE('',*,*,#187,.F.);
#144=ORIENTED_EDGE('',*,*,#196,.F.);
#145=ORIENTED_EDGE('',*,*,#180,.T.);
#146=ORIENTED_EDGE('',*,*,#195,.T.);
#147=ORIENTED_EDGE('',*,*,#186,.F.);
#148=ORIENTED_EDGE('',*,*,#197,.F.);
#149=ORIENTED_EDGE('',*,*,#181,.T.);
#150=ORIENTED_EDGE('',*,*,#196,.T.);
#151=ORIENTED_EDGE('',*,*,#185,.F.);
#152=ORIENTED_EDGE('',*,*,#198,.F.);
#153=ORIENTED_EDGE('',*,*,#182,.T.);
#154=ORIENTED_EDGE('',*,*,#197,.T.);
#155=ORIENTED_EDGE('',*,*,#184,.F.);
#156=ORIENTED_EDGE('',*,*,#192,.F.);
#157=ORIENTED_EDGE('',*,*,#175,.T.);
#158=ORIENTED_EDGE('',*,*,#198,.T.);
#159=ORIENTED_EDGE('',*,*,#183,.F.);
#160=EDGE_CURVE('',#199,#199,#226,.T.);
#161=EDGE_CURVE('',#200,#201,#26,.T.);
#162=EDGE_CURVE('',#201,#202,#27,.T.);
#163=EDGE_CURVE('',#202,#203,#28,.T.);
#164=EDGE_CURVE('',#203,#200,#29,.T.);
#165=EDGE_CURVE('',#204,#204,#227,.T.);
#166=EDGE_CURVE('',#205,#205,#228,.F.);
#167=EDGE_CURVE('',#206,#200,#30,.T.);
#168=EDGE_CURVE('',#206,#207,#31,.T.);
#169=EDGE_CURVE('',#207,#201,#32,.T.);
#170=EDGE_CURVE('',#207,#208,#33,.T.);
#171=EDGE_CURVE('',#208,#202,#34,.T.);
#172=EDGE_CURVE('',#208,#209,#35,.T.);
#173=EDGE_CURVE('',#209,#203,#36,.T.);
#174=EDGE_CURVE('',#209,#206,#37,.T.);
#175=EDGE_CURVE('',#210,#211,#229,.F.);
#176=EDGE_CURVE('',#212,#210,#38,.T.);
#177=EDGE_CURVE('',#213,#212,#230,.F.);
#178=EDGE_CURVE('',#214,#213,#39,.T.);
#179=EDGE_CURVE('',#215,#214,#231,.F.);
#180=EDGE_CURVE('',#216,#215,#40,.T.);
#181=EDGE_CURVE('',#217,#216,#232,.F.);
#182=EDGE_CURVE('',#211,#217,#41,.T.);
#183=EDGE_CURVE('',#218,#219,#233,.T.);
#184=EDGE_CURVE('',#219,#220,#42,.T.);
#185=EDGE_CURVE('',#220,#221,#234,.T.);
#186=EDGE_CURVE('',#221,#222,#43,.T.);
#187=EDGE_CURVE('',#222,#223,#235,.T.);
#188=EDGE_CURVE('',#223,#224,#44,.T.);
#189=EDGE_CURVE('',#224,#225,#236,.T.);
#190=EDGE_CURVE('',#225,#218,#45,.T.);
#191=EDGE_CURVE('',#212,#225,#46,.T.);
#192=EDGE_CURVE('',#210,#218,#47,.T.);
#193=EDGE_CURVE('',#213,#224,#48,.T.);
#194=EDGE_CURVE('',#214,#223,#49,.T.);
#195=EDGE_CURVE('',#215,#222,#50,.T.);
#196=EDGE_CURVE('',#216,#221,#51,.T.);
#197=EDGE_CURVE('',#217,#220,#52,.T.);
#198=EDGE_CURVE('',#211,#219,#53,.T.);
#199=VERTEX_POINT('',#444);
#200=VERTEX_POINT('',#446);
#201=VERTEX_POINT('',#447);
#202=VERTEX_POINT('',#449);
#203=VERTEX_POINT('',#451);
#204=VERTEX_POINT('',#455);
#205=VERTEX_POINT('',#458);
#206=VERTEX_POINT('',#462);
#207=VERTEX_POINT('',#464);
#208=VERTEX_POINT('',#468);
#209=VERTEX_POINT('',#472);
#210=VERTEX_POINT('',#478);
#211=VERTEX_POINT('',#479);
#212=VERTEX_POINT('',#481);
#213=VERTEX_POINT('',#483);
#214=VERTEX_POINT('',#485);
#215=VERTEX_POINT('',#487);
#216=VERTEX_POINT('',#489);
#217=VERTEX_POINT('',#491);
#218=VERTEX_POINT('',#495);
#219=VERTEX_POINT('',#496);
#220=VERTEX_POINT('',#498);
#221=VERTEX_POINT('',#500);
#222=VERTEX_POINT('',#502);
#223=VERTEX_POINT('',#504);
#224=VERTEX_POINT('',#506);
#225=VERTEX_POINT('',#508);
#226=CIRCLE('',#325,6.1);
#227=CIRCLE('',#327,6.1);
#228=CIRCLE('',#329,5.1);
#229=CIRCLE('',#336,2.);
#230=CIRCLE('',#337,2.);
#231=CIRCLE('',#338,2.);
#232=CIRCLE('',#339,2.);
#233=CIRCLE('',#341,2.);
#234=CIRCLE('',#342,2.);
#235=CIRCLE('',#343,2.);
#236=CIRCLE('',#344,2.);
#237=EDGE_LOOP('',(#82));
#238=EDGE_LOOP('',(#83,#84,#85,#86));
#239=EDGE_LOOP('',(#87));
#240=EDGE_LOOP('',(#88));
#241=EDGE_LOOP('',(#89));
#242=EDGE_LOOP('',(#90));
#243=EDGE_LOOP('',(#91));
#244=EDGE_LOOP('',(#92,#93,#94,#95));
#245=EDGE_LOOP('',(#96,#97,#98,#99));
#246=EDGE_LOOP('',(#100,#101,#102,#103));
#247=EDGE_LOOP('',(#104,#105,#106,#107));
#248=EDGE_LOOP('',(#108,#109,#110,#111,#112,#113,#114,#115));
#249=EDGE_LOOP('',(#116,#117,#118,#119));
#250=EDGE_LOOP('',(#120,#121,#122,#123,#124,#125,#126,#127));
#251=EDGE_LOOP('',(#128,#129,#130,#131));
#252=EDGE_LOOP('',(#132,#133,#134,#135));
#253=EDGE_LOOP('',(#136,#137,#138,#139));
#254=EDGE_LOOP('',(#140,#141,#142,#143));
#255=EDGE_LOOP('',(#144,#145,#146,#147));
#256=EDGE_LOOP('',(#148,#149,#150,#151));
#257=EDGE_LOOP('',(#152,#153,#154,#155));
#258=EDGE_LOOP('',(#156,#157,#158,#159));
#259=FACE_BOUND('',#237,.T.);
#260=FACE_BOUND('',#238,.T.);
#261=FACE_BOUND('',#239,.T.);
#262=FACE_BOUND('',#240,.T.);
#263=FACE_BOUND('',#241,.T.);
#264=FACE_BOUND('',#242,.T.);
#265=FACE_BOUND('',#243,.T.);
#266=FACE_BOUND('',#244,.T.);
#267=FACE_BOUND('',#245,.T.);
#268=FACE_BOUND('',#246,.T.);
#269=FACE_BOUND('',#247,.T.);
#270=FACE_BOUND('',#248,.T.);
#271=FACE_BOUND('',#249,.T.);
#272=FACE_BOUND('',#250,.T.);
#273=FACE_BOUND('',#251,.T.);
#274=FACE_BOUND('',#252,.T.);
#275=FACE_BOUND('',#253,.T.);
#276=FACE_BOUND('',#254,.T.);
#277=FACE_BOUND('',#255,.T.);
#278=FACE_BOUND('',#256,.T.);
#279=FACE_BOUND('',#257,.T.);
#280=FACE_BOUND('',#258,.T.);
#281=PLANE('',#324);
#282=PLANE('',#328);
#283=PLANE('',#331);
#284=PLANE('',#332);
#285=PLANE('',#333);
#286=PLANE('',#334);
#287=PLANE('',#335);
#288=PLANE('',#340);
#289=PLANE('',#345);
#290=PLANE('',#347);
#291=PLANE('',#349);
#292=PLANE('',#351);
#293=ADVANCED_FACE('',(#259,#260),#281,.F.);
#294=ADVANCED_FACE('',(#261,#262),#21,.T.);
#295=ADVANCED_FACE('',(#263),#282,.F.);
#296=ADVANCED_FACE('',(#264,#265),#20,.T.);
#297=ADVANCED_FACE('',(#266),#283,.T.);
#298=ADVANCED_FACE('',(#267),#284,.T.);
#299=ADVANCED_FACE('',(#268),#285,.T.);
#300=ADVANCED_FACE('',(#269),#286,.T.);
#301=ADVANCED_FACE('',(#270,#271),#287,.F.);
#302=ADVANCED_FACE('',(#272),#288,.T.);
#303=ADVANCED_FACE('',(#273),#289,.T.);
#304=ADVANCED_FACE('',(#274),#22,.T.);
#305=ADVANCED_FACE('',(#275),#290,.T.);
#306=ADVANCED_FACE('',(#276),#23,.T.);
#307=ADVANCED_FACE('',(#277),#291,.T.);
#308=ADVANCED_FACE('',(#278),#24,.T.);
#309=ADVANCED_FACE('',(#279),#292,.T.);
#310=ADVANCED_FACE('',(#280),#25,.T.);
#311=CLOSED_SHELL('',(#293,#294,#295,#296,#297,#298,#299,#300,#301,#302,
#303,#304,#305,#306,#307,#308,#309,#310));
#312=STYLED_ITEM('',(#313),#320);
#313=PRESENTATION_STYLE_ASSIGNMENT((#314));
#314=SURFACE_STYLE_USAGE(.BOTH.,#315);
#315=SURFACE_SIDE_STYLE('',(#316));
#316=SURFACE_STYLE_FILL_AREA(#317);
#317=FILL_AREA_STYLE('',(#318));
#318=FILL_AREA_STYLE_COLOUR('',#319);
#319=COLOUR_RGB('',0.506983280181885,0.531564235687256,0.550000011920929);
#320=MANIFOLD_SOLID_BREP('',#311);
#321=SHAPE_DEFINITION_REPRESENTATION(#532,#322);
#322=SHAPE_REPRESENTATION('SN 9024.1-03 ALB LED RD (102476557)',(#323),
#527);
#323=AXIS2_PLACEMENT_3D('',#441,#353,#354);
#324=AXIS2_PLACEMENT_3D('',#442,#355,#356);
#325=AXIS2_PLACEMENT_3D('',#443,#357,#358);
#326=AXIS2_PLACEMENT_3D('',#453,#363,#364);
#327=AXIS2_PLACEMENT_3D('',#454,#365,#366);
#328=AXIS2_PLACEMENT_3D('',#456,#367,#368);
#329=AXIS2_PLACEMENT_3D('',#457,#369,#370);
#330=AXIS2_PLACEMENT_3D('',#459,#371,#372);
#331=AXIS2_PLACEMENT_3D('',#460,#373,#374);
#332=AXIS2_PLACEMENT_3D('',#466,#378,#379);
#333=AXIS2_PLACEMENT_3D('',#470,#382,#383);
#334=AXIS2_PLACEMENT_3D('',#474,#386,#387);
#335=AXIS2_PLACEMENT_3D('',#476,#389,#390);
#336=AXIS2_PLACEMENT_3D('',#477,#391,#392);
#337=AXIS2_PLACEMENT_3D('',#482,#394,#395);
#338=AXIS2_PLACEMENT_3D('',#486,#397,#398);
#339=AXIS2_PLACEMENT_3D('',#490,#400,#401);
#340=AXIS2_PLACEMENT_3D('',#493,#403,#404);
#341=AXIS2_PLACEMENT_3D('',#494,#405,#406);
#342=AXIS2_PLACEMENT_3D('',#499,#408,#409);
#343=AXIS2_PLACEMENT_3D('',#503,#411,#412);
#344=AXIS2_PLACEMENT_3D('',#507,#414,#415);
#345=AXIS2_PLACEMENT_3D('',#510,#417,#418);
#346=AXIS2_PLACEMENT_3D('',#513,#421,#422);
#347=AXIS2_PLACEMENT_3D('',#515,#424,#425);
#348=AXIS2_PLACEMENT_3D('',#517,#427,#428);
#349=AXIS2_PLACEMENT_3D('',#519,#430,#431);
#350=AXIS2_PLACEMENT_3D('',#521,#433,#434);
#351=AXIS2_PLACEMENT_3D('',#523,#436,#437);
#352=AXIS2_PLACEMENT_3D('',#525,#439,#440);
#353=DIRECTION('',(0.,0.,1.));
#354=DIRECTION('',(1.,0.,0.));
#355=DIRECTION('',(0.,0.,1.));
#356=DIRECTION('',(1.,0.,0.));
#357=DIRECTION('',(0.,0.,1.));
#358=DIRECTION('',(1.,0.,0.));
#359=DIRECTION('',(-1.,0.,0.));
#360=DIRECTION('',(0.,1.,0.));
#361=DIRECTION('',(1.,0.,0.));
#362=DIRECTION('',(0.,-1.,0.));
#363=DIRECTION('',(0.,0.,1.));
#364=DIRECTION('',(1.,0.,0.));
#365=DIRECTION('',(0.,0.,1.));
#366=DIRECTION('',(1.,0.,0.));
#367=DIRECTION('',(0.,0.,1.));
#368=DIRECTION('',(1.,0.,0.));
#369=DIRECTION('',(0.,0.,1.));
#370=DIRECTION('',(1.,0.,0.));
#371=DIRECTION('',(0.,0.,1.));
#372=DIRECTION('',(1.,0.,0.));
#373=DIRECTION('',(0.,-1.,0.));
#374=DIRECTION('',(0.,0.,-1.));
#375=DIRECTION('',(0.,0.,-1.));
#376=DIRECTION('',(-1.,0.,0.));
#377=DIRECTION('',(0.,0.,-1.));
#378=DIRECTION('',(-1.,0.,0.));
#379=DIRECTION('',(0.,0.,1.));
#380=DIRECTION('',(0.,1.,0.));
#381=DIRECTION('',(0.,0.,-1.));
#382=DIRECTION('',(0.,1.,0.));
#383=DIRECTION('',(0.,0.,1.));
#384=DIRECTION('',(1.,0.,0.));
#385=DIRECTION('',(0.,0.,-1.));
#386=DIRECTION('',(1.,0.,0.));
#387=DIRECTION('',(0.,0.,-1.));
#388=DIRECTION('',(0.,-1.,0.));
#389=DIRECTION('',(0.,0.,-1.));
#390=DIRECTION('',(-1.,0.,0.));
#391=DIRECTION('',(0.,0.,-1.));
#392=DIRECTION('',(-1.,0.,0.));
#393=DIRECTION('',(1.,0.,0.));
#394=DIRECTION('',(0.,0.,-1.));
#395=DIRECTION('',(-1.,0.,0.));
#396=DIRECTION('',(0.,-1.,0.));
#397=DIRECTION('',(0.,0.,-1.));
#398=DIRECTION('',(-1.,0.,0.));
#399=DIRECTION('',(-1.,0.,0.));
#400=DIRECTION('',(0.,0.,-1.));
#401=DIRECTION('',(-1.,0.,0.));
#402=DIRECTION('',(0.,1.,0.));
#403=DIRECTION('',(0.,0.,1.));
#404=DIRECTION('',(1.,0.,0.));
#405=DIRECTION('',(0.,0.,1.));
#406=DIRECTION('',(-1.,0.,0.));
#407=DIRECTION('',(0.,1.,0.));
#408=DIRECTION('',(0.,0.,1.));
#409=DIRECTION('',(0.,-1.,0.));
#410=DIRECTION('',(-1.,0.,0.));
#411=DIRECTION('',(0.,0.,1.));
#412=DIRECTION('',(1.,0.,0.));
#413=DIRECTION('',(0.,-1.,0.));
#414=DIRECTION('',(0.,0.,1.));
#415=DIRECTION('',(0.,1.,0.));
#416=DIRECTION('',(1.,0.,0.));
#417=DIRECTION('',(0.,-1.,0.));
#418=DIRECTION('',(0.,0.,-1.));
#419=DIRECTION('',(0.,0.,1.));
#420=DIRECTION('',(0.,0.,1.));
#421=DIRECTION('',(0.,0.,1.));
#422=DIRECTION('',(1.,0.,0.));
#423=DIRECTION('',(0.,0.,1.));
#424=DIRECTION('',(-1.,0.,0.));
#425=DIRECTION('',(0.,0.,1.));
#426=DIRECTION('',(0.,0.,1.));
#427=DIRECTION('',(0.,0.,1.));
#428=DIRECTION('',(1.,0.,0.));
#429=DIRECTION('',(0.,0.,1.));
#430=DIRECTION('',(0.,1.,0.));
#431=DIRECTION('',(0.,0.,1.));
#432=DIRECTION('',(0.,0.,1.));
#433=DIRECTION('',(0.,0.,1.));
#434=DIRECTION('',(1.,0.,0.));
#435=DIRECTION('',(0.,0.,1.));
#436=DIRECTION('',(1.,0.,0.));
#437=DIRECTION('',(0.,0.,-1.));
#438=DIRECTION('',(0.,0.,1.));
#439=DIRECTION('',(0.,0.,1.));
#440=DIRECTION('',(1.,0.,0.));
#441=CARTESIAN_POINT('',(0.,0.,0.));
#442=CARTESIAN_POINT('',(9.5,-9.5,-20.));
#443=CARTESIAN_POINT('',(0.,0.,-20.));
#444=CARTESIAN_POINT('',(6.1,0.,-20.));
#445=CARTESIAN_POINT('',(22.5,-22.5,-20.));
#446=CARTESIAN_POINT('',(22.5,-22.5,-20.));
#447=CARTESIAN_POINT('',(-22.5,-22.5,-20.));
#448=CARTESIAN_POINT('',(-22.5,-22.5,-20.));
#449=CARTESIAN_POINT('',(-22.5,22.5,-20.));
#450=CARTESIAN_POINT('',(-22.5,22.5,-20.));
#451=CARTESIAN_POINT('',(22.5,22.5,-20.));
#452=CARTESIAN_POINT('',(22.5,22.5,-20.));
#453=CARTESIAN_POINT('',(0.,0.,-23.7876563958646));
#454=CARTESIAN_POINT('',(0.,0.,-22.7876563958646));
#455=CARTESIAN_POINT('',(6.1,0.,-22.7876563958646));
#456=CARTESIAN_POINT('',(0.,0.,-23.7876563958646));
#457=CARTESIAN_POINT('',(0.,0.,-23.7876563958646));
#458=CARTESIAN_POINT('',(5.1,0.,-23.7876563958646));
#459=CARTESIAN_POINT('',(0.,0.,-22.7876563958646));
#460=CARTESIAN_POINT('',(22.5,-22.5,-18.5));
#461=CARTESIAN_POINT('',(22.5,-22.5,-18.5));
#462=CARTESIAN_POINT('',(22.5,-22.5,-18.5));
#463=CARTESIAN_POINT('',(22.5,-22.5,-18.5));
#464=CARTESIAN_POINT('',(-22.5,-22.5,-18.5));
#465=CARTESIAN_POINT('',(-22.5,-22.5,-18.5));
#466=CARTESIAN_POINT('',(-22.5,-22.5,-18.5));
#467=CARTESIAN_POINT('',(-22.5,-22.5,-18.5));
#468=CARTESIAN_POINT('',(-22.5,22.5,-18.5));
#469=CARTESIAN_POINT('',(-22.5,22.5,-18.5));
#470=CARTESIAN_POINT('',(-22.5,22.5,-18.5));
#471=CARTESIAN_POINT('',(-22.5,22.5,-18.5));
#472=CARTESIAN_POINT('',(22.5,22.5,-18.5));
#473=CARTESIAN_POINT('',(22.5,22.5,-18.5));
#474=CARTESIAN_POINT('',(22.5,22.5,-18.5));
#475=CARTESIAN_POINT('',(22.5,22.5,-18.5));
#476=CARTESIAN_POINT('',(0.,0.,-18.5));
#477=CARTESIAN_POINT('',(9.5,-9.5,-18.5));
#478=CARTESIAN_POINT('',(7.5,-9.5,-18.5));
#479=CARTESIAN_POINT('',(9.5,-7.5,-18.5));
#480=CARTESIAN_POINT('',(-7.5,-9.5,-18.5));
#481=CARTESIAN_POINT('',(-7.5,-9.5,-18.5));
#482=CARTESIAN_POINT('',(-9.5,-9.5,-18.5));
#483=CARTESIAN_POINT('',(-9.5,-7.5,-18.5));
#484=CARTESIAN_POINT('',(-9.5,7.5,-18.5));
#485=CARTESIAN_POINT('',(-9.5,7.5,-18.5));
#486=CARTESIAN_POINT('',(-9.5,9.5,-18.5));
#487=CARTESIAN_POINT('',(-7.5,9.5,-18.5));
#488=CARTESIAN_POINT('',(7.5,9.5,-18.5));
#489=CARTESIAN_POINT('',(7.5,9.5,-18.5));
#490=CARTESIAN_POINT('',(9.5,9.5,-18.5));
#491=CARTESIAN_POINT('',(9.5,7.5,-18.5));
#492=CARTESIAN_POINT('',(9.5,-7.5,-18.5));
#493=CARTESIAN_POINT('',(9.5,-9.5,0.));
#494=CARTESIAN_POINT('',(9.5,-9.5,0.));
#495=CARTESIAN_POINT('',(7.5,-9.5,0.));
#496=CARTESIAN_POINT('',(9.5,-7.5,0.));
#497=CARTESIAN_POINT('',(9.5,-7.5,0.));
#498=CARTESIAN_POINT('',(9.5,7.5,0.));
#499=CARTESIAN_POINT('',(9.5,9.5,0.));
#500=CARTESIAN_POINT('',(7.5,9.5,0.));
#501=CARTESIAN_POINT('',(7.5,9.5,0.));
#502=CARTESIAN_POINT('',(-7.5,9.5,0.));
#503=CARTESIAN_POINT('',(-9.5,9.5,0.));
#504=CARTESIAN_POINT('',(-9.5,7.5,0.));
#505=CARTESIAN_POINT('',(-9.5,7.5,0.));
#506=CARTESIAN_POINT('',(-9.5,-7.5,0.));
#507=CARTESIAN_POINT('',(-9.5,-9.5,0.));
#508=CARTESIAN_POINT('',(-7.5,-9.5,0.));
#509=CARTESIAN_POINT('',(-7.5,-9.5,0.));
#510=CARTESIAN_POINT('',(-7.5,-9.5,-20.));
#511=CARTESIAN_POINT('',(-7.5,-9.5,-20.));
#512=CARTESIAN_POINT('',(7.5,-9.5,-20.));
#513=CARTESIAN_POINT('',(-9.5,-9.5,-20.));
#514=CARTESIAN_POINT('',(-9.5,-7.5,-20.));
#515=CARTESIAN_POINT('',(-9.5,7.5,-20.));
#516=CARTESIAN_POINT('',(-9.5,7.5,-20.));
#517=CARTESIAN_POINT('',(-9.5,9.5,-20.));
#518=CARTESIAN_POINT('',(-7.5,9.5,-20.));
#519=CARTESIAN_POINT('',(7.5,9.5,-20.));
#520=CARTESIAN_POINT('',(7.5,9.5,-20.));
#521=CARTESIAN_POINT('',(9.5,9.5,-20.));
#522=CARTESIAN_POINT('',(9.5,7.5,-20.));
#523=CARTESIAN_POINT('',(9.5,-7.5,-20.));
#524=CARTESIAN_POINT('',(9.5,-7.5,-20.));
#525=CARTESIAN_POINT('',(9.5,-9.5,-20.));
#526=MECHANICAL_DESIGN_GEOMETRIC_PRESENTATION_REPRESENTATION('',(#312),
#527);
#527=(
GEOMETRIC_REPRESENTATION_CONTEXT(3)
GLOBAL_UNCERTAINTY_ASSIGNED_CONTEXT((#528))
GLOBAL_UNIT_ASSIGNED_CONTEXT((#531,#530,#529))
REPRESENTATION_CONTEXT('SN 9024.1-03 ALB LED RD (102476557)',
'TOP_LEVEL_ASSEMBLY_PART')
);
#528=UNCERTAINTY_MEASURE_WITH_UNIT(LENGTH_MEASURE(0.005),#531,
'DISTANCE_ACCURACY_VALUE','Maximum Tolerance applied to model');
#529=(
NAMED_UNIT(*)
SI_UNIT($,.STERADIAN.)
SOLID_ANGLE_UNIT()
);
#530=(
NAMED_UNIT(*)
PLANE_ANGLE_UNIT()
SI_UNIT($,.RADIAN.)
);
#531=(
LENGTH_UNIT()
NAMED_UNIT(*)
SI_UNIT(.MILLI.,.METRE.)
);
#532=PRODUCT_DEFINITION_SHAPE('','',#533);
#533=PRODUCT_DEFINITION('','',#535,#534);
#534=PRODUCT_DEFINITION_CONTEXT('',#541,'design');
#535=PRODUCT_DEFINITION_FORMATION_WITH_SPECIFIED_SOURCE('','',#537,
 .NOT_KNOWN.);
#536=PRODUCT_RELATED_PRODUCT_CATEGORY('','',(#537));
#537=PRODUCT('SN 9024.1-03 ALB LED RD (102476557)',
'SN 9024.1-03 ALB LED RD (102476557)',
'SN 9024.1-03 ALB LED RD (102476557)',(#539));
#538=PRODUCT_CATEGORY('','');
#539=PRODUCT_CONTEXT('',#541,'mechanical');
#540=APPLICATION_PROTOCOL_DEFINITION('international standard',
'automotive_design',2010,#541);
#541=APPLICATION_CONTEXT(
'core data for automotive mechanical design processes');
ENDSEC;
END-ISO-10303-21;
