ISO-10303-21;
HEADER;
/* Generated by software containing ST-Developer
 * from STEP Tools, Inc. (www.steptools.com) 
 */
/* OPTION: strings as raw bytes, not using required /X/ escapes */

FILE_DESCRIPTION(
/* description */ ('Unknown'),
/* implementation_level */ '2;1');

FILE_NAME(
/* name */ 'SN 9024.1-03 SLB LED RD ',
/* time_stamp */ '2023-10-30T10:01:13+01:00',
/* author */ ('Unknown'),
/* organization */ ('Unknown'),
/* preprocessor_version */ 'ST-DEVELOPER v18.102',
/* originating_system */ 'Solid Edge',
/* authorisation */ 'Unknown');

FILE_SCHEMA (('AUTOMOTIVE_DESIGN {1 0 10303 214 3 1 1}'));
ENDSEC;

DATA;
#10=PROPERTY_DEFINITION_REPRESENTATION(#14,#12);
#11=PROPERTY_DEFINITION_REPRESENTATION(#15,#13);
#12=REPRESENTATION('',(#16),#505);
#13=REPRESENTATION('',(#17),#505);
#14=PROPERTY_DEFINITION('pmi validation property','',#510);
#15=PROPERTY_DEFINITION('pmi validation property','',#510);
#16=VALUE_REPRESENTATION_ITEM('number of annotations',COUNT_MEASURE(0.));
#17=VALUE_REPRESENTATION_ITEM('number of views',COUNT_MEASURE(0.));
#18=SHAPE_REPRESENTATION_RELATIONSHIP('','',#298,#19);
#19=ADVANCED_BREP_SHAPE_REPRESENTATION('',(#296),#505);
#20=DEGENERATE_TOROIDAL_SURFACE('',#335,2.10564020226234,4.,.T.);
#21=CONICAL_SURFACE('',#323,22.5324977327052,0.0872664625997192);
#22=CONICAL_SURFACE('',#325,22.515,0.785398163397447);
#23=CONICAL_SURFACE('',#329,16.6839156193816,1.01914134426635);
#24=PLANE('',#303);
#25=PLANE('',#307);
#26=PLANE('',#311);
#27=PLANE('',#315);
#28=PLANE('',#316);
#29=PLANE('',#317);
#30=PLANE('',#321);
#31=PLANE('',#327);
#32=PLANE('',#331);
#33=PLANE('',#333);
#34=LINE('',#431,#50);
#35=LINE('',#435,#51);
#36=LINE('',#437,#52);
#37=LINE('',#439,#53);
#38=LINE('',#441,#54);
#39=LINE('',#447,#55);
#40=LINE('',#449,#56);
#41=LINE('',#451,#57);
#42=LINE('',#453,#58);
#43=LINE('',#459,#59);
#44=LINE('',#461,#60);
#45=LINE('',#463,#61);
#46=LINE('',#465,#62);
#47=LINE('',#471,#63);
#48=LINE('',#473,#64);
#49=LINE('',#474,#65);
#50=VECTOR('',#342,1000.);
#51=VECTOR('',#345,1000.);
#52=VECTOR('',#348,1000.);
#53=VECTOR('',#349,1000.);
#54=VECTOR('',#350,1000.);
#55=VECTOR('',#357,1000.);
#56=VECTOR('',#360,1000.);
#57=VECTOR('',#361,1000.);
#58=VECTOR('',#362,1000.);
#59=VECTOR('',#369,1000.);
#60=VECTOR('',#372,1000.);
#61=VECTOR('',#373,1000.);
#62=VECTOR('',#374,1000.);
#63=VECTOR('',#381,1000.);
#64=VECTOR('',#384,1000.);
#65=VECTOR('',#385,1000.);
#66=ORIENTED_EDGE('',*,*,#132,.F.);
#67=ORIENTED_EDGE('',*,*,#133,.F.);
#68=ORIENTED_EDGE('',*,*,#134,.T.);
#69=ORIENTED_EDGE('',*,*,#135,.T.);
#70=ORIENTED_EDGE('',*,*,#136,.F.);
#71=ORIENTED_EDGE('',*,*,#135,.F.);
#72=ORIENTED_EDGE('',*,*,#137,.T.);
#73=ORIENTED_EDGE('',*,*,#138,.T.);
#74=ORIENTED_EDGE('',*,*,#139,.F.);
#75=ORIENTED_EDGE('',*,*,#138,.F.);
#76=ORIENTED_EDGE('',*,*,#140,.T.);
#77=ORIENTED_EDGE('',*,*,#141,.T.);
#78=ORIENTED_EDGE('',*,*,#142,.F.);
#79=ORIENTED_EDGE('',*,*,#141,.F.);
#80=ORIENTED_EDGE('',*,*,#143,.T.);
#81=ORIENTED_EDGE('',*,*,#144,.T.);
#82=ORIENTED_EDGE('',*,*,#145,.F.);
#83=ORIENTED_EDGE('',*,*,#144,.F.);
#84=ORIENTED_EDGE('',*,*,#146,.T.);
#85=ORIENTED_EDGE('',*,*,#147,.T.);
#86=ORIENTED_EDGE('',*,*,#148,.F.);
#87=ORIENTED_EDGE('',*,*,#147,.F.);
#88=ORIENTED_EDGE('',*,*,#149,.T.);
#89=ORIENTED_EDGE('',*,*,#150,.T.);
#90=ORIENTED_EDGE('',*,*,#151,.F.);
#91=ORIENTED_EDGE('',*,*,#150,.F.);
#92=ORIENTED_EDGE('',*,*,#152,.T.);
#93=ORIENTED_EDGE('',*,*,#153,.T.);
#94=ORIENTED_EDGE('',*,*,#154,.F.);
#95=ORIENTED_EDGE('',*,*,#153,.F.);
#96=ORIENTED_EDGE('',*,*,#155,.T.);
#97=ORIENTED_EDGE('',*,*,#133,.T.);
#98=ORIENTED_EDGE('',*,*,#132,.T.);
#99=ORIENTED_EDGE('',*,*,#136,.T.);
#100=ORIENTED_EDGE('',*,*,#139,.T.);
#101=ORIENTED_EDGE('',*,*,#142,.T.);
#102=ORIENTED_EDGE('',*,*,#145,.T.);
#103=ORIENTED_EDGE('',*,*,#148,.T.);
#104=ORIENTED_EDGE('',*,*,#151,.T.);
#105=ORIENTED_EDGE('',*,*,#154,.T.);
#106=ORIENTED_EDGE('',*,*,#156,.T.);
#107=ORIENTED_EDGE('',*,*,#134,.F.);
#108=ORIENTED_EDGE('',*,*,#155,.F.);
#109=ORIENTED_EDGE('',*,*,#152,.F.);
#110=ORIENTED_EDGE('',*,*,#149,.F.);
#111=ORIENTED_EDGE('',*,*,#146,.F.);
#112=ORIENTED_EDGE('',*,*,#143,.F.);
#113=ORIENTED_EDGE('',*,*,#140,.F.);
#114=ORIENTED_EDGE('',*,*,#137,.F.);
#115=ORIENTED_EDGE('',*,*,#157,.F.);
#116=ORIENTED_EDGE('',*,*,#156,.F.);
#117=ORIENTED_EDGE('',*,*,#158,.T.);
#118=ORIENTED_EDGE('',*,*,#157,.T.);
#119=ORIENTED_EDGE('',*,*,#159,.T.);
#120=ORIENTED_EDGE('',*,*,#158,.F.);
#121=ORIENTED_EDGE('',*,*,#160,.T.);
#122=ORIENTED_EDGE('',*,*,#159,.F.);
#123=ORIENTED_EDGE('',*,*,#161,.T.);
#124=ORIENTED_EDGE('',*,*,#160,.F.);
#125=ORIENTED_EDGE('',*,*,#162,.T.);
#126=ORIENTED_EDGE('',*,*,#161,.F.);
#127=ORIENTED_EDGE('',*,*,#163,.T.);
#128=ORIENTED_EDGE('',*,*,#162,.F.);
#129=ORIENTED_EDGE('',*,*,#164,.T.);
#130=ORIENTED_EDGE('',*,*,#164,.F.);
#131=ORIENTED_EDGE('',*,*,#163,.F.);
#132=EDGE_CURVE('',#165,#166,#190,.T.);
#133=EDGE_CURVE('',#167,#165,#34,.T.);
#134=EDGE_CURVE('',#167,#168,#191,.T.);
#135=EDGE_CURVE('',#168,#166,#35,.T.);
#136=EDGE_CURVE('',#166,#169,#36,.T.);
#137=EDGE_CURVE('',#168,#170,#37,.T.);
#138=EDGE_CURVE('',#170,#169,#38,.T.);
#139=EDGE_CURVE('',#169,#171,#192,.T.);
#140=EDGE_CURVE('',#170,#172,#193,.T.);
#141=EDGE_CURVE('',#172,#171,#39,.T.);
#142=EDGE_CURVE('',#171,#173,#40,.T.);
#143=EDGE_CURVE('',#172,#174,#41,.T.);
#144=EDGE_CURVE('',#174,#173,#42,.T.);
#145=EDGE_CURVE('',#173,#175,#194,.T.);
#146=EDGE_CURVE('',#174,#176,#195,.T.);
#147=EDGE_CURVE('',#176,#175,#43,.T.);
#148=EDGE_CURVE('',#175,#177,#44,.T.);
#149=EDGE_CURVE('',#176,#178,#45,.T.);
#150=EDGE_CURVE('',#178,#177,#46,.T.);
#151=EDGE_CURVE('',#177,#179,#196,.T.);
#152=EDGE_CURVE('',#178,#180,#197,.T.);
#153=EDGE_CURVE('',#180,#179,#47,.T.);
#154=EDGE_CURVE('',#179,#165,#48,.T.);
#155=EDGE_CURVE('',#180,#167,#49,.T.);
#156=EDGE_CURVE('',#181,#181,#198,.T.);
#157=EDGE_CURVE('',#182,#182,#199,.F.);
#158=EDGE_CURVE('',#183,#183,#200,.T.);
#159=EDGE_CURVE('',#184,#184,#201,.T.);
#160=EDGE_CURVE('',#185,#185,#202,.T.);
#161=EDGE_CURVE('',#186,#186,#203,.T.);
#162=EDGE_CURVE('',#187,#187,#204,.T.);
#163=EDGE_CURVE('',#188,#188,#205,.T.);
#164=EDGE_CURVE('',#189,#189,#206,.F.);
#165=VERTEX_POINT('',#429);
#166=VERTEX_POINT('',#430);
#167=VERTEX_POINT('',#432);
#168=VERTEX_POINT('',#434);
#169=VERTEX_POINT('',#438);
#170=VERTEX_POINT('',#440);
#171=VERTEX_POINT('',#444);
#172=VERTEX_POINT('',#446);
#173=VERTEX_POINT('',#450);
#174=VERTEX_POINT('',#452);
#175=VERTEX_POINT('',#456);
#176=VERTEX_POINT('',#458);
#177=VERTEX_POINT('',#462);
#178=VERTEX_POINT('',#464);
#179=VERTEX_POINT('',#468);
#180=VERTEX_POINT('',#470);
#181=VERTEX_POINT('',#478);
#182=VERTEX_POINT('',#481);
#183=VERTEX_POINT('',#484);
#184=VERTEX_POINT('',#487);
#185=VERTEX_POINT('',#490);
#186=VERTEX_POINT('',#493);
#187=VERTEX_POINT('',#496);
#188=VERTEX_POINT('',#499);
#189=VERTEX_POINT('',#502);
#190=CIRCLE('',#301,2.);
#191=CIRCLE('',#302,2.);
#192=CIRCLE('',#305,2.);
#193=CIRCLE('',#306,2.);
#194=CIRCLE('',#309,2.);
#195=CIRCLE('',#310,2.);
#196=CIRCLE('',#313,2.);
#197=CIRCLE('',#314,2.);
#198=CIRCLE('',#318,18.);
#199=CIRCLE('',#320,18.);
#200=CIRCLE('',#322,22.5324977327052);
#201=CIRCLE('',#324,22.515);
#202=CIRCLE('',#326,20.515);
#203=CIRCLE('',#328,16.6839156193816);
#204=CIRCLE('',#330,13.4339156193816);
#205=CIRCLE('',#332,6.1);
#206=CIRCLE('',#334,2.10564020226234);
#207=EDGE_LOOP('',(#66,#67,#68,#69));
#208=EDGE_LOOP('',(#70,#71,#72,#73));
#209=EDGE_LOOP('',(#74,#75,#76,#77));
#210=EDGE_LOOP('',(#78,#79,#80,#81));
#211=EDGE_LOOP('',(#82,#83,#84,#85));
#212=EDGE_LOOP('',(#86,#87,#88,#89));
#213=EDGE_LOOP('',(#90,#91,#92,#93));
#214=EDGE_LOOP('',(#94,#95,#96,#97));
#215=EDGE_LOOP('',(#98,#99,#100,#101,#102,#103,#104,#105));
#216=EDGE_LOOP('',(#106));
#217=EDGE_LOOP('',(#107,#108,#109,#110,#111,#112,#113,#114));
#218=EDGE_LOOP('',(#115));
#219=EDGE_LOOP('',(#116));
#220=EDGE_LOOP('',(#117));
#221=EDGE_LOOP('',(#118));
#222=EDGE_LOOP('',(#119));
#223=EDGE_LOOP('',(#120));
#224=EDGE_LOOP('',(#121));
#225=EDGE_LOOP('',(#122));
#226=EDGE_LOOP('',(#123));
#227=EDGE_LOOP('',(#124));
#228=EDGE_LOOP('',(#125));
#229=EDGE_LOOP('',(#126));
#230=EDGE_LOOP('',(#127));
#231=EDGE_LOOP('',(#128));
#232=EDGE_LOOP('',(#129));
#233=EDGE_LOOP('',(#130));
#234=EDGE_LOOP('',(#131));
#235=FACE_BOUND('',#207,.T.);
#236=FACE_BOUND('',#208,.T.);
#237=FACE_BOUND('',#209,.T.);
#238=FACE_BOUND('',#210,.T.);
#239=FACE_BOUND('',#211,.T.);
#240=FACE_BOUND('',#212,.T.);
#241=FACE_BOUND('',#213,.T.);
#242=FACE_BOUND('',#214,.T.);
#243=FACE_BOUND('',#215,.T.);
#244=FACE_BOUND('',#216,.T.);
#245=FACE_BOUND('',#217,.T.);
#246=FACE_BOUND('',#218,.T.);
#247=FACE_BOUND('',#219,.T.);
#248=FACE_BOUND('',#220,.T.);
#249=FACE_BOUND('',#221,.T.);
#250=FACE_BOUND('',#222,.T.);
#251=FACE_BOUND('',#223,.T.);
#252=FACE_BOUND('',#224,.T.);
#253=FACE_BOUND('',#225,.T.);
#254=FACE_BOUND('',#226,.T.);
#255=FACE_BOUND('',#227,.T.);
#256=FACE_BOUND('',#228,.T.);
#257=FACE_BOUND('',#229,.T.);
#258=FACE_BOUND('',#230,.T.);
#259=FACE_BOUND('',#231,.T.);
#260=FACE_BOUND('',#232,.T.);
#261=FACE_BOUND('',#233,.T.);
#262=FACE_BOUND('',#234,.T.);
#263=CYLINDRICAL_SURFACE('',#300,2.);
#264=CYLINDRICAL_SURFACE('',#304,2.);
#265=CYLINDRICAL_SURFACE('',#308,2.);
#266=CYLINDRICAL_SURFACE('',#312,2.);
#267=CYLINDRICAL_SURFACE('',#319,18.);
#268=ADVANCED_FACE('',(#235),#263,.T.);
#269=ADVANCED_FACE('',(#236),#24,.T.);
#270=ADVANCED_FACE('',(#237),#264,.T.);
#271=ADVANCED_FACE('',(#238),#25,.T.);
#272=ADVANCED_FACE('',(#239),#265,.T.);
#273=ADVANCED_FACE('',(#240),#26,.T.);
#274=ADVANCED_FACE('',(#241),#266,.T.);
#275=ADVANCED_FACE('',(#242),#27,.T.);
#276=ADVANCED_FACE('',(#243),#28,.T.);
#277=ADVANCED_FACE('',(#244,#245),#29,.T.);
#278=ADVANCED_FACE('',(#246,#247),#267,.T.);
#279=ADVANCED_FACE('',(#248,#249),#30,.T.);
#280=ADVANCED_FACE('',(#250,#251),#21,.T.);
#281=ADVANCED_FACE('',(#252,#253),#22,.T.);
#282=ADVANCED_FACE('',(#254,#255),#31,.T.);
#283=ADVANCED_FACE('',(#256,#257),#23,.F.);
#284=ADVANCED_FACE('',(#258,#259),#32,.F.);
#285=ADVANCED_FACE('',(#260),#33,.F.);
#286=ADVANCED_FACE('',(#261,#262),#20,.T.);
#287=CLOSED_SHELL('',(#268,#269,#270,#271,#272,#273,#274,#275,#276,#277,
#278,#279,#280,#281,#282,#283,#284,#285,#286));
#288=STYLED_ITEM('',(#289),#296);
#289=PRESENTATION_STYLE_ASSIGNMENT((#290));
#290=SURFACE_STYLE_USAGE(.BOTH.,#291);
#291=SURFACE_SIDE_STYLE('',(#292));
#292=SURFACE_STYLE_FILL_AREA(#293);
#293=FILL_AREA_STYLE('',(#294));
#294=FILL_AREA_STYLE_COLOUR('',#295);
#295=COLOUR_RGB('',0.506983280181885,0.531564235687256,0.550000011920929);
#296=MANIFOLD_SOLID_BREP('',#287);
#297=SHAPE_DEFINITION_REPRESENTATION(#510,#298);
#298=SHAPE_REPRESENTATION('SN 9024.1-03 ALB LED RD (102476557)',(#299),
#505);
#299=AXIS2_PLACEMENT_3D('',#426,#336,#337);
#300=AXIS2_PLACEMENT_3D('',#427,#338,#339);
#301=AXIS2_PLACEMENT_3D('',#428,#340,#341);
#302=AXIS2_PLACEMENT_3D('',#433,#343,#344);
#303=AXIS2_PLACEMENT_3D('',#436,#346,#347);
#304=AXIS2_PLACEMENT_3D('',#442,#351,#352);
#305=AXIS2_PLACEMENT_3D('',#443,#353,#354);
#306=AXIS2_PLACEMENT_3D('',#445,#355,#356);
#307=AXIS2_PLACEMENT_3D('',#448,#358,#359);
#308=AXIS2_PLACEMENT_3D('',#454,#363,#364);
#309=AXIS2_PLACEMENT_3D('',#455,#365,#366);
#310=AXIS2_PLACEMENT_3D('',#457,#367,#368);
#311=AXIS2_PLACEMENT_3D('',#460,#370,#371);
#312=AXIS2_PLACEMENT_3D('',#466,#375,#376);
#313=AXIS2_PLACEMENT_3D('',#467,#377,#378);
#314=AXIS2_PLACEMENT_3D('',#469,#379,#380);
#315=AXIS2_PLACEMENT_3D('',#472,#382,#383);
#316=AXIS2_PLACEMENT_3D('',#475,#386,#387);
#317=AXIS2_PLACEMENT_3D('',#476,#388,#389);
#318=AXIS2_PLACEMENT_3D('',#477,#390,#391);
#319=AXIS2_PLACEMENT_3D('',#479,#392,#393);
#320=AXIS2_PLACEMENT_3D('',#480,#394,#395);
#321=AXIS2_PLACEMENT_3D('',#482,#396,#397);
#322=AXIS2_PLACEMENT_3D('',#483,#398,#399);
#323=AXIS2_PLACEMENT_3D('',#485,#400,#401);
#324=AXIS2_PLACEMENT_3D('',#486,#402,#403);
#325=AXIS2_PLACEMENT_3D('',#488,#404,#405);
#326=AXIS2_PLACEMENT_3D('',#489,#406,#407);
#327=AXIS2_PLACEMENT_3D('',#491,#408,#409);
#328=AXIS2_PLACEMENT_3D('',#492,#410,#411);
#329=AXIS2_PLACEMENT_3D('',#494,#412,#413);
#330=AXIS2_PLACEMENT_3D('',#495,#414,#415);
#331=AXIS2_PLACEMENT_3D('',#497,#416,#417);
#332=AXIS2_PLACEMENT_3D('',#498,#418,#419);
#333=AXIS2_PLACEMENT_3D('',#500,#420,#421);
#334=AXIS2_PLACEMENT_3D('',#501,#422,#423);
#335=AXIS2_PLACEMENT_3D('',#503,#424,#425);
#336=DIRECTION('',(0.,0.,1.));
#337=DIRECTION('',(1.,0.,0.));
#338=DIRECTION('',(0.,0.,1.));
#339=DIRECTION('',(1.,0.,0.));
#340=DIRECTION('',(0.,0.,1.));
#341=DIRECTION('',(-1.,0.,0.));
#342=DIRECTION('',(0.,0.,1.));
#343=DIRECTION('',(0.,0.,1.));
#344=DIRECTION('',(-1.,0.,0.));
#345=DIRECTION('',(0.,0.,1.));
#346=DIRECTION('',(1.,0.,0.));
#347=DIRECTION('',(0.,0.,-1.));
#348=DIRECTION('',(0.,1.,0.));
#349=DIRECTION('',(0.,1.,0.));
#350=DIRECTION('',(0.,0.,1.));
#351=DIRECTION('',(0.,0.,1.));
#352=DIRECTION('',(1.,0.,0.));
#353=DIRECTION('',(0.,0.,1.));
#354=DIRECTION('',(0.,-1.,0.));
#355=DIRECTION('',(0.,0.,1.));
#356=DIRECTION('',(0.,-1.,0.));
#357=DIRECTION('',(0.,0.,1.));
#358=DIRECTION('',(0.,1.,0.));
#359=DIRECTION('',(0.,0.,1.));
#360=DIRECTION('',(-1.,0.,0.));
#361=DIRECTION('',(-1.,0.,0.));
#362=DIRECTION('',(0.,0.,1.));
#363=DIRECTION('',(0.,0.,1.));
#364=DIRECTION('',(1.,0.,0.));
#365=DIRECTION('',(0.,0.,1.));
#366=DIRECTION('',(1.,0.,0.));
#367=DIRECTION('',(0.,0.,1.));
#368=DIRECTION('',(1.,0.,0.));
#369=DIRECTION('',(0.,0.,1.));
#370=DIRECTION('',(-1.,0.,0.));
#371=DIRECTION('',(0.,0.,1.));
#372=DIRECTION('',(0.,-1.,0.));
#373=DIRECTION('',(0.,-1.,0.));
#374=DIRECTION('',(0.,0.,1.));
#375=DIRECTION('',(0.,0.,1.));
#376=DIRECTION('',(1.,0.,0.));
#377=DIRECTION('',(0.,0.,1.));
#378=DIRECTION('',(0.,1.,0.));
#379=DIRECTION('',(0.,0.,1.));
#380=DIRECTION('',(0.,1.,0.));
#381=DIRECTION('',(0.,0.,1.));
#382=DIRECTION('',(0.,-1.,0.));
#383=DIRECTION('',(0.,0.,-1.));
#384=DIRECTION('',(1.,0.,0.));
#385=DIRECTION('',(1.,0.,0.));
#386=DIRECTION('',(0.,0.,1.));
#387=DIRECTION('',(1.,0.,0.));
#388=DIRECTION('',(0.,0.,1.));
#389=DIRECTION('',(1.,0.,0.));
#390=DIRECTION('',(0.,0.,1.));
#391=DIRECTION('',(0.,1.,0.));
#392=DIRECTION('',(0.,0.,1.));
#393=DIRECTION('',(1.,0.,0.));
#394=DIRECTION('',(0.,0.,1.));
#395=DIRECTION('',(1.,0.,0.));
#396=DIRECTION('',(0.,0.,1.));
#397=DIRECTION('',(1.,0.,0.));
#398=DIRECTION('',(0.,0.,1.));
#399=DIRECTION('',(1.,0.,0.));
#400=DIRECTION('',(0.,0.,1.));
#401=DIRECTION('',(1.,0.,0.));
#402=DIRECTION('',(0.,0.,1.));
#403=DIRECTION('',(1.,0.,0.));
#404=DIRECTION('',(0.,0.,1.));
#405=DIRECTION('',(1.,0.,0.));
#406=DIRECTION('',(0.,0.,1.));
#407=DIRECTION('',(1.,0.,0.));
#408=DIRECTION('',(0.,0.,-1.));
#409=DIRECTION('',(-1.,0.,0.));
#410=DIRECTION('',(0.,0.,1.));
#411=DIRECTION('',(1.,0.,0.));
#412=DIRECTION('',(0.,0.,-1.));
#413=DIRECTION('',(-1.,0.,0.));
#414=DIRECTION('',(0.,0.,1.));
#415=DIRECTION('',(1.,0.,0.));
#416=DIRECTION('',(0.,0.,1.));
#417=DIRECTION('',(1.,0.,0.));
#418=DIRECTION('',(0.,0.,1.));
#419=DIRECTION('',(0.,1.,0.));
#420=DIRECTION('',(0.,0.,1.));
#421=DIRECTION('',(1.,0.,0.));
#422=DIRECTION('',(0.,0.,1.));
#423=DIRECTION('',(1.,0.,0.));
#424=DIRECTION('',(0.,0.,-1.));
#425=DIRECTION('',(-1.,0.,0.));
#426=CARTESIAN_POINT('',(0.,0.,0.));
#427=CARTESIAN_POINT('',(9.5,-9.5,-20.));
#428=CARTESIAN_POINT('',(9.5,-9.5,0.));
#429=CARTESIAN_POINT('',(7.5,-9.5,0.));
#430=CARTESIAN_POINT('',(9.5,-7.5,0.));
#431=CARTESIAN_POINT('',(7.5,-9.5,-20.));
#432=CARTESIAN_POINT('',(7.5,-9.5,-20.));
#433=CARTESIAN_POINT('',(9.5,-9.5,-20.));
#434=CARTESIAN_POINT('',(9.5,-7.5,-20.));
#435=CARTESIAN_POINT('',(9.5,-7.5,-20.));
#436=CARTESIAN_POINT('',(9.5,-7.5,-20.));
#437=CARTESIAN_POINT('',(9.5,-7.5,0.));
#438=CARTESIAN_POINT('',(9.5,7.5,0.));
#439=CARTESIAN_POINT('',(9.5,-7.5,-20.));
#440=CARTESIAN_POINT('',(9.5,7.5,-20.));
#441=CARTESIAN_POINT('',(9.5,7.5,-20.));
#442=CARTESIAN_POINT('',(9.5,9.5,-20.));
#443=CARTESIAN_POINT('',(9.5,9.5,0.));
#444=CARTESIAN_POINT('',(7.5,9.5,0.));
#445=CARTESIAN_POINT('',(9.5,9.5,-20.));
#446=CARTESIAN_POINT('',(7.5,9.5,-20.));
#447=CARTESIAN_POINT('',(7.5,9.5,-20.));
#448=CARTESIAN_POINT('',(7.5,9.5,-20.));
#449=CARTESIAN_POINT('',(7.5,9.5,0.));
#450=CARTESIAN_POINT('',(-7.5,9.5,0.));
#451=CARTESIAN_POINT('',(7.5,9.5,-20.));
#452=CARTESIAN_POINT('',(-7.5,9.5,-20.));
#453=CARTESIAN_POINT('',(-7.5,9.5,-20.));
#454=CARTESIAN_POINT('',(-9.5,9.5,-20.));
#455=CARTESIAN_POINT('',(-9.5,9.5,0.));
#456=CARTESIAN_POINT('',(-9.5,7.5,0.));
#457=CARTESIAN_POINT('',(-9.5,9.5,-20.));
#458=CARTESIAN_POINT('',(-9.5,7.5,-20.));
#459=CARTESIAN_POINT('',(-9.5,7.5,-20.));
#460=CARTESIAN_POINT('',(-9.5,7.5,-20.));
#461=CARTESIAN_POINT('',(-9.5,7.5,0.));
#462=CARTESIAN_POINT('',(-9.5,-7.5,0.));
#463=CARTESIAN_POINT('',(-9.5,7.5,-20.));
#464=CARTESIAN_POINT('',(-9.5,-7.5,-20.));
#465=CARTESIAN_POINT('',(-9.5,-7.5,-20.));
#466=CARTESIAN_POINT('',(-9.5,-9.5,-20.));
#467=CARTESIAN_POINT('',(-9.5,-9.5,0.));
#468=CARTESIAN_POINT('',(-7.5,-9.5,0.));
#469=CARTESIAN_POINT('',(-9.5,-9.5,-20.));
#470=CARTESIAN_POINT('',(-7.5,-9.5,-20.));
#471=CARTESIAN_POINT('',(-7.5,-9.5,-20.));
#472=CARTESIAN_POINT('',(-7.5,-9.5,-20.));
#473=CARTESIAN_POINT('',(-7.5,-9.5,0.));
#474=CARTESIAN_POINT('',(-7.5,-9.5,-20.));
#475=CARTESIAN_POINT('',(9.5,-9.5,0.));
#476=CARTESIAN_POINT('',(0.,0.,-20.));
#477=CARTESIAN_POINT('',(0.,0.,-20.));
#478=CARTESIAN_POINT('',(0.,18.,-20.));
#479=CARTESIAN_POINT('',(0.,0.,-26.));
#480=CARTESIAN_POINT('',(0.,0.,-25.8));
#481=CARTESIAN_POINT('',(18.,0.,-25.8));
#482=CARTESIAN_POINT('',(1.37967199454795E-15,22.5324977327052,-25.8));
#483=CARTESIAN_POINT('',(0.,0.,-25.8));
#484=CARTESIAN_POINT('',(22.5324977327052,0.,-25.8));
#485=CARTESIAN_POINT('',(0.,0.,-25.8));
#486=CARTESIAN_POINT('',(0.,0.,-26.));
#487=CARTESIAN_POINT('',(22.515,0.,-26.));
#488=CARTESIAN_POINT('',(0.,0.,-26.));
#489=CARTESIAN_POINT('',(0.,0.,-28.));
#490=CARTESIAN_POINT('',(20.515,0.,-28.));
#491=CARTESIAN_POINT('',(1.02156145370655E-15,16.6839156193816,-28.));
#492=CARTESIAN_POINT('',(0.,0.,-28.));
#493=CARTESIAN_POINT('',(16.6839156193816,0.,-28.));
#494=CARTESIAN_POINT('',(0.,0.,-28.));
#495=CARTESIAN_POINT('',(0.,0.,-26.));
#496=CARTESIAN_POINT('',(13.4339156193816,0.,-26.));
#497=CARTESIAN_POINT('',(0.,0.,-26.));
#498=CARTESIAN_POINT('',(0.,0.,-26.));
#499=CARTESIAN_POINT('',(0.,6.1,-26.));
#500=CARTESIAN_POINT('',(0.,0.,-29.7876563958646));
#501=CARTESIAN_POINT('',(0.,0.,-29.7876563958646));
#502=CARTESIAN_POINT('',(2.10564020226234,0.,-29.7876563958646));
#503=CARTESIAN_POINT('',(0.,0.,-25.7876563958646));
#504=MECHANICAL_DESIGN_GEOMETRIC_PRESENTATION_REPRESENTATION('',(#288),
#505);
#505=(
GEOMETRIC_REPRESENTATION_CONTEXT(3)
GLOBAL_UNCERTAINTY_ASSIGNED_CONTEXT((#506))
GLOBAL_UNIT_ASSIGNED_CONTEXT((#509,#508,#507))
REPRESENTATION_CONTEXT('SN 9024.1-03 ALB LED RD (102476557)',
'TOP_LEVEL_ASSEMBLY_PART')
);
#506=UNCERTAINTY_MEASURE_WITH_UNIT(LENGTH_MEASURE(0.005),#509,
'DISTANCE_ACCURACY_VALUE','Maximum Tolerance applied to model');
#507=(
NAMED_UNIT(*)
SI_UNIT($,.STERADIAN.)
SOLID_ANGLE_UNIT()
);
#508=(
NAMED_UNIT(*)
PLANE_ANGLE_UNIT()
SI_UNIT($,.RADIAN.)
);
#509=(
LENGTH_UNIT()
NAMED_UNIT(*)
SI_UNIT(.MILLI.,.METRE.)
);
#510=PRODUCT_DEFINITION_SHAPE('','',#511);
#511=PRODUCT_DEFINITION('','',#513,#512);
#512=PRODUCT_DEFINITION_CONTEXT('',#519,'design');
#513=PRODUCT_DEFINITION_FORMATION_WITH_SPECIFIED_SOURCE('','',#515,
 .NOT_KNOWN.);
#514=PRODUCT_RELATED_PRODUCT_CATEGORY('','',(#515));
#515=PRODUCT('SN 9024.1-03 ALB LED RD (102476557)',
'SN 9024.1-03 ALB LED RD (102476557)',
'SN 9024.1-03 ALB LED RD (102476557)',(#517));
#516=PRODUCT_CATEGORY('','');
#517=PRODUCT_CONTEXT('',#519,'mechanical');
#518=APPLICATION_PROTOCOL_DEFINITION('international standard',
'automotive_design',2010,#519);
#519=APPLICATION_CONTEXT(
'core data for automotive mechanical design processes');
ENDSEC;
END-ISO-10303-21;
