ISO-10303-21;
HEADER;
/* Generated by software containing ST-Developer
 * from STEP Tools, Inc. (www.steptools.com) 
 */
/* OPTION: strings as raw bytes, not using required /X/ escapes */

FILE_DESCRIPTION(
/* description */ ('Unknown'),
/* implementation_level */ '2;1');

FILE_NAME(
/* name */ 'SN 9024.1-03 SLB LED SQ',
/* time_stamp */ '2023-10-30T13:59:26+01:00',
/* author */ ('Unknown'),
/* organization */ ('Unknown'),
/* preprocessor_version */ 'ST-DEVELOPER v18.102',
/* originating_system */ 'Solid Edge',
/* authorisation */ 'Unknown');

FILE_SCHEMA (('AUTOMOTIVE_DESIGN {1 0 10303 214 3 1 1}'));
ENDSEC;

DATA;
#10=PROPERTY_DEFINITION_REPRESENTATION(#14,#12);
#11=PROPERTY_DEFINITION_REPRESENTATION(#15,#13);
#12=REPRESENTATION('',(#16),#507);
#13=REPRESENTATION('',(#17),#507);
#14=PROPERTY_DEFINITION('pmi validation property','',#512);
#15=PROPERTY_DEFINITION('pmi validation property','',#512);
#16=VALUE_REPRESENTATION_ITEM('number of annotations',COUNT_MEASURE(0.));
#17=VALUE_REPRESENTATION_ITEM('number of views',COUNT_MEASURE(0.));
#18=SHAPE_REPRESENTATION_RELATIONSHIP('','',#311,#19);
#19=ADVANCED_BREP_SHAPE_REPRESENTATION('',(#309),#507);
#20=CYLINDRICAL_SURFACE('',#333,2.);
#21=CYLINDRICAL_SURFACE('',#335,2.);
#22=CYLINDRICAL_SURFACE('',#337,2.);
#23=CYLINDRICAL_SURFACE('',#339,2.);
#24=DEGENERATE_TOROIDAL_SURFACE('',#317,2.10564020226234,4.,.T.);
#25=LINE('',#428,#53);
#26=LINE('',#431,#54);
#27=LINE('',#433,#55);
#28=LINE('',#435,#56);
#29=LINE('',#441,#57);
#30=LINE('',#443,#58);
#31=LINE('',#445,#59);
#32=LINE('',#447,#60);
#33=LINE('',#449,#61);
#34=LINE('',#451,#62);
#35=LINE('',#453,#63);
#36=LINE('',#455,#64);
#37=LINE('',#460,#65);
#38=LINE('',#464,#66);
#39=LINE('',#468,#67);
#40=LINE('',#472,#68);
#41=LINE('',#477,#69);
#42=LINE('',#481,#70);
#43=LINE('',#485,#71);
#44=LINE('',#489,#72);
#45=LINE('',#491,#73);
#46=LINE('',#492,#74);
#47=LINE('',#494,#75);
#48=LINE('',#496,#76);
#49=LINE('',#498,#77);
#50=LINE('',#500,#78);
#51=LINE('',#502,#79);
#52=LINE('',#504,#80);
#53=VECTOR('',#346,1000.);
#54=VECTOR('',#347,1000.);
#55=VECTOR('',#348,1000.);
#56=VECTOR('',#349,1000.);
#57=VECTOR('',#358,1000.);
#58=VECTOR('',#359,1000.);
#59=VECTOR('',#360,1000.);
#60=VECTOR('',#363,1000.);
#61=VECTOR('',#364,1000.);
#62=VECTOR('',#367,1000.);
#63=VECTOR('',#368,1000.);
#64=VECTOR('',#371,1000.);
#65=VECTOR('',#376,1000.);
#66=VECTOR('',#379,1000.);
#67=VECTOR('',#382,1000.);
#68=VECTOR('',#385,1000.);
#69=VECTOR('',#390,1000.);
#70=VECTOR('',#393,1000.);
#71=VECTOR('',#396,1000.);
#72=VECTOR('',#399,1000.);
#73=VECTOR('',#402,1000.);
#74=VECTOR('',#403,1000.);
#75=VECTOR('',#406,1000.);
#76=VECTOR('',#409,1000.);
#77=VECTOR('',#412,1000.);
#78=VECTOR('',#415,1000.);
#79=VECTOR('',#418,1000.);
#80=VECTOR('',#421,1000.);
#81=ORIENTED_EDGE('',*,*,#157,.T.);
#82=ORIENTED_EDGE('',*,*,#158,.T.);
#83=ORIENTED_EDGE('',*,*,#159,.T.);
#84=ORIENTED_EDGE('',*,*,#160,.T.);
#85=ORIENTED_EDGE('',*,*,#161,.T.);
#86=ORIENTED_EDGE('',*,*,#162,.T.);
#87=ORIENTED_EDGE('',*,*,#162,.F.);
#88=ORIENTED_EDGE('',*,*,#157,.F.);
#89=ORIENTED_EDGE('',*,*,#158,.F.);
#90=ORIENTED_EDGE('',*,*,#163,.F.);
#91=ORIENTED_EDGE('',*,*,#164,.T.);
#92=ORIENTED_EDGE('',*,*,#165,.T.);
#93=ORIENTED_EDGE('',*,*,#159,.F.);
#94=ORIENTED_EDGE('',*,*,#165,.F.);
#95=ORIENTED_EDGE('',*,*,#166,.T.);
#96=ORIENTED_EDGE('',*,*,#167,.T.);
#97=ORIENTED_EDGE('',*,*,#160,.F.);
#98=ORIENTED_EDGE('',*,*,#167,.F.);
#99=ORIENTED_EDGE('',*,*,#168,.T.);
#100=ORIENTED_EDGE('',*,*,#169,.T.);
#101=ORIENTED_EDGE('',*,*,#161,.F.);
#102=ORIENTED_EDGE('',*,*,#169,.F.);
#103=ORIENTED_EDGE('',*,*,#170,.T.);
#104=ORIENTED_EDGE('',*,*,#163,.T.);
#105=ORIENTED_EDGE('',*,*,#171,.F.);
#106=ORIENTED_EDGE('',*,*,#172,.F.);
#107=ORIENTED_EDGE('',*,*,#173,.F.);
#108=ORIENTED_EDGE('',*,*,#174,.F.);
#109=ORIENTED_EDGE('',*,*,#175,.F.);
#110=ORIENTED_EDGE('',*,*,#176,.F.);
#111=ORIENTED_EDGE('',*,*,#177,.F.);
#112=ORIENTED_EDGE('',*,*,#178,.F.);
#113=ORIENTED_EDGE('',*,*,#164,.F.);
#114=ORIENTED_EDGE('',*,*,#170,.F.);
#115=ORIENTED_EDGE('',*,*,#168,.F.);
#116=ORIENTED_EDGE('',*,*,#166,.F.);
#117=ORIENTED_EDGE('',*,*,#179,.T.);
#118=ORIENTED_EDGE('',*,*,#180,.T.);
#119=ORIENTED_EDGE('',*,*,#181,.T.);
#120=ORIENTED_EDGE('',*,*,#182,.T.);
#121=ORIENTED_EDGE('',*,*,#183,.T.);
#122=ORIENTED_EDGE('',*,*,#184,.T.);
#123=ORIENTED_EDGE('',*,*,#185,.T.);
#124=ORIENTED_EDGE('',*,*,#186,.T.);
#125=ORIENTED_EDGE('',*,*,#187,.F.);
#126=ORIENTED_EDGE('',*,*,#172,.T.);
#127=ORIENTED_EDGE('',*,*,#188,.T.);
#128=ORIENTED_EDGE('',*,*,#186,.F.);
#129=ORIENTED_EDGE('',*,*,#189,.F.);
#130=ORIENTED_EDGE('',*,*,#173,.T.);
#131=ORIENTED_EDGE('',*,*,#187,.T.);
#132=ORIENTED_EDGE('',*,*,#185,.F.);
#133=ORIENTED_EDGE('',*,*,#190,.F.);
#134=ORIENTED_EDGE('',*,*,#174,.T.);
#135=ORIENTED_EDGE('',*,*,#189,.T.);
#136=ORIENTED_EDGE('',*,*,#184,.F.);
#137=ORIENTED_EDGE('',*,*,#191,.F.);
#138=ORIENTED_EDGE('',*,*,#175,.T.);
#139=ORIENTED_EDGE('',*,*,#190,.T.);
#140=ORIENTED_EDGE('',*,*,#183,.F.);
#141=ORIENTED_EDGE('',*,*,#192,.F.);
#142=ORIENTED_EDGE('',*,*,#176,.T.);
#143=ORIENTED_EDGE('',*,*,#191,.T.);
#144=ORIENTED_EDGE('',*,*,#182,.F.);
#145=ORIENTED_EDGE('',*,*,#193,.F.);
#146=ORIENTED_EDGE('',*,*,#177,.T.);
#147=ORIENTED_EDGE('',*,*,#192,.T.);
#148=ORIENTED_EDGE('',*,*,#181,.F.);
#149=ORIENTED_EDGE('',*,*,#194,.F.);
#150=ORIENTED_EDGE('',*,*,#178,.T.);
#151=ORIENTED_EDGE('',*,*,#193,.T.);
#152=ORIENTED_EDGE('',*,*,#180,.F.);
#153=ORIENTED_EDGE('',*,*,#188,.F.);
#154=ORIENTED_EDGE('',*,*,#171,.T.);
#155=ORIENTED_EDGE('',*,*,#194,.T.);
#156=ORIENTED_EDGE('',*,*,#179,.F.);
#157=EDGE_CURVE('',#195,#195,#221,.T.);
#158=EDGE_CURVE('',#196,#197,#25,.T.);
#159=EDGE_CURVE('',#197,#198,#26,.T.);
#160=EDGE_CURVE('',#198,#199,#27,.T.);
#161=EDGE_CURVE('',#199,#196,#28,.T.);
#162=EDGE_CURVE('',#200,#200,#222,.F.);
#163=EDGE_CURVE('',#201,#196,#29,.T.);
#164=EDGE_CURVE('',#201,#202,#30,.T.);
#165=EDGE_CURVE('',#202,#197,#31,.T.);
#166=EDGE_CURVE('',#202,#203,#32,.T.);
#167=EDGE_CURVE('',#203,#198,#33,.T.);
#168=EDGE_CURVE('',#203,#204,#34,.T.);
#169=EDGE_CURVE('',#204,#199,#35,.T.);
#170=EDGE_CURVE('',#204,#201,#36,.T.);
#171=EDGE_CURVE('',#205,#206,#223,.F.);
#172=EDGE_CURVE('',#207,#205,#37,.T.);
#173=EDGE_CURVE('',#208,#207,#224,.F.);
#174=EDGE_CURVE('',#209,#208,#38,.T.);
#175=EDGE_CURVE('',#210,#209,#225,.F.);
#176=EDGE_CURVE('',#211,#210,#39,.T.);
#177=EDGE_CURVE('',#212,#211,#226,.F.);
#178=EDGE_CURVE('',#206,#212,#40,.T.);
#179=EDGE_CURVE('',#213,#214,#227,.T.);
#180=EDGE_CURVE('',#214,#215,#41,.T.);
#181=EDGE_CURVE('',#215,#216,#228,.T.);
#182=EDGE_CURVE('',#216,#217,#42,.T.);
#183=EDGE_CURVE('',#217,#218,#229,.T.);
#184=EDGE_CURVE('',#218,#219,#43,.T.);
#185=EDGE_CURVE('',#219,#220,#230,.T.);
#186=EDGE_CURVE('',#220,#213,#44,.T.);
#187=EDGE_CURVE('',#207,#220,#45,.T.);
#188=EDGE_CURVE('',#205,#213,#46,.T.);
#189=EDGE_CURVE('',#208,#219,#47,.T.);
#190=EDGE_CURVE('',#209,#218,#48,.T.);
#191=EDGE_CURVE('',#210,#217,#49,.T.);
#192=EDGE_CURVE('',#211,#216,#50,.T.);
#193=EDGE_CURVE('',#212,#215,#51,.T.);
#194=EDGE_CURVE('',#206,#214,#52,.T.);
#195=VERTEX_POINT('',#427);
#196=VERTEX_POINT('',#429);
#197=VERTEX_POINT('',#430);
#198=VERTEX_POINT('',#432);
#199=VERTEX_POINT('',#434);
#200=VERTEX_POINT('',#438);
#201=VERTEX_POINT('',#442);
#202=VERTEX_POINT('',#444);
#203=VERTEX_POINT('',#448);
#204=VERTEX_POINT('',#452);
#205=VERTEX_POINT('',#458);
#206=VERTEX_POINT('',#459);
#207=VERTEX_POINT('',#461);
#208=VERTEX_POINT('',#463);
#209=VERTEX_POINT('',#465);
#210=VERTEX_POINT('',#467);
#211=VERTEX_POINT('',#469);
#212=VERTEX_POINT('',#471);
#213=VERTEX_POINT('',#475);
#214=VERTEX_POINT('',#476);
#215=VERTEX_POINT('',#478);
#216=VERTEX_POINT('',#480);
#217=VERTEX_POINT('',#482);
#218=VERTEX_POINT('',#484);
#219=VERTEX_POINT('',#486);
#220=VERTEX_POINT('',#488);
#221=CIRCLE('',#314,6.1);
#222=CIRCLE('',#316,2.10564020226234);
#223=CIRCLE('',#323,2.);
#224=CIRCLE('',#324,2.);
#225=CIRCLE('',#325,2.);
#226=CIRCLE('',#326,2.);
#227=CIRCLE('',#328,2.);
#228=CIRCLE('',#329,2.);
#229=CIRCLE('',#330,2.);
#230=CIRCLE('',#331,2.);
#231=EDGE_LOOP('',(#81));
#232=EDGE_LOOP('',(#82,#83,#84,#85));
#233=EDGE_LOOP('',(#86));
#234=EDGE_LOOP('',(#87));
#235=EDGE_LOOP('',(#88));
#236=EDGE_LOOP('',(#89,#90,#91,#92));
#237=EDGE_LOOP('',(#93,#94,#95,#96));
#238=EDGE_LOOP('',(#97,#98,#99,#100));
#239=EDGE_LOOP('',(#101,#102,#103,#104));
#240=EDGE_LOOP('',(#105,#106,#107,#108,#109,#110,#111,#112));
#241=EDGE_LOOP('',(#113,#114,#115,#116));
#242=EDGE_LOOP('',(#117,#118,#119,#120,#121,#122,#123,#124));
#243=EDGE_LOOP('',(#125,#126,#127,#128));
#244=EDGE_LOOP('',(#129,#130,#131,#132));
#245=EDGE_LOOP('',(#133,#134,#135,#136));
#246=EDGE_LOOP('',(#137,#138,#139,#140));
#247=EDGE_LOOP('',(#141,#142,#143,#144));
#248=EDGE_LOOP('',(#145,#146,#147,#148));
#249=EDGE_LOOP('',(#149,#150,#151,#152));
#250=EDGE_LOOP('',(#153,#154,#155,#156));
#251=FACE_BOUND('',#231,.T.);
#252=FACE_BOUND('',#232,.T.);
#253=FACE_BOUND('',#233,.T.);
#254=FACE_BOUND('',#234,.T.);
#255=FACE_BOUND('',#235,.T.);
#256=FACE_BOUND('',#236,.T.);
#257=FACE_BOUND('',#237,.T.);
#258=FACE_BOUND('',#238,.T.);
#259=FACE_BOUND('',#239,.T.);
#260=FACE_BOUND('',#240,.T.);
#261=FACE_BOUND('',#241,.T.);
#262=FACE_BOUND('',#242,.T.);
#263=FACE_BOUND('',#243,.T.);
#264=FACE_BOUND('',#244,.T.);
#265=FACE_BOUND('',#245,.T.);
#266=FACE_BOUND('',#246,.T.);
#267=FACE_BOUND('',#247,.T.);
#268=FACE_BOUND('',#248,.T.);
#269=FACE_BOUND('',#249,.T.);
#270=FACE_BOUND('',#250,.T.);
#271=PLANE('',#313);
#272=PLANE('',#315);
#273=PLANE('',#318);
#274=PLANE('',#319);
#275=PLANE('',#320);
#276=PLANE('',#321);
#277=PLANE('',#322);
#278=PLANE('',#327);
#279=PLANE('',#332);
#280=PLANE('',#334);
#281=PLANE('',#336);
#282=PLANE('',#338);
#283=ADVANCED_FACE('',(#251,#252),#271,.F.);
#284=ADVANCED_FACE('',(#253),#272,.F.);
#285=ADVANCED_FACE('',(#254,#255),#24,.T.);
#286=ADVANCED_FACE('',(#256),#273,.T.);
#287=ADVANCED_FACE('',(#257),#274,.T.);
#288=ADVANCED_FACE('',(#258),#275,.T.);
#289=ADVANCED_FACE('',(#259),#276,.T.);
#290=ADVANCED_FACE('',(#260,#261),#277,.F.);
#291=ADVANCED_FACE('',(#262),#278,.T.);
#292=ADVANCED_FACE('',(#263),#279,.T.);
#293=ADVANCED_FACE('',(#264),#20,.T.);
#294=ADVANCED_FACE('',(#265),#280,.T.);
#295=ADVANCED_FACE('',(#266),#21,.T.);
#296=ADVANCED_FACE('',(#267),#281,.T.);
#297=ADVANCED_FACE('',(#268),#22,.T.);
#298=ADVANCED_FACE('',(#269),#282,.T.);
#299=ADVANCED_FACE('',(#270),#23,.T.);
#300=CLOSED_SHELL('',(#283,#284,#285,#286,#287,#288,#289,#290,#291,#292,
#293,#294,#295,#296,#297,#298,#299));
#301=STYLED_ITEM('',(#302),#309);
#302=PRESENTATION_STYLE_ASSIGNMENT((#303));
#303=SURFACE_STYLE_USAGE(.BOTH.,#304);
#304=SURFACE_SIDE_STYLE('',(#305));
#305=SURFACE_STYLE_FILL_AREA(#306);
#306=FILL_AREA_STYLE('',(#307));
#307=FILL_AREA_STYLE_COLOUR('',#308);
#308=COLOUR_RGB('',0.506983280181885,0.531564235687256,0.550000011920929);
#309=MANIFOLD_SOLID_BREP('',#300);
#310=SHAPE_DEFINITION_REPRESENTATION(#512,#311);
#311=SHAPE_REPRESENTATION('SN 9024.1-03 ALB LED RD (102476557)',(#312),
#507);
#312=AXIS2_PLACEMENT_3D('',#424,#340,#341);
#313=AXIS2_PLACEMENT_3D('',#425,#342,#343);
#314=AXIS2_PLACEMENT_3D('',#426,#344,#345);
#315=AXIS2_PLACEMENT_3D('',#436,#350,#351);
#316=AXIS2_PLACEMENT_3D('',#437,#352,#353);
#317=AXIS2_PLACEMENT_3D('',#439,#354,#355);
#318=AXIS2_PLACEMENT_3D('',#440,#356,#357);
#319=AXIS2_PLACEMENT_3D('',#446,#361,#362);
#320=AXIS2_PLACEMENT_3D('',#450,#365,#366);
#321=AXIS2_PLACEMENT_3D('',#454,#369,#370);
#322=AXIS2_PLACEMENT_3D('',#456,#372,#373);
#323=AXIS2_PLACEMENT_3D('',#457,#374,#375);
#324=AXIS2_PLACEMENT_3D('',#462,#377,#378);
#325=AXIS2_PLACEMENT_3D('',#466,#380,#381);
#326=AXIS2_PLACEMENT_3D('',#470,#383,#384);
#327=AXIS2_PLACEMENT_3D('',#473,#386,#387);
#328=AXIS2_PLACEMENT_3D('',#474,#388,#389);
#329=AXIS2_PLACEMENT_3D('',#479,#391,#392);
#330=AXIS2_PLACEMENT_3D('',#483,#394,#395);
#331=AXIS2_PLACEMENT_3D('',#487,#397,#398);
#332=AXIS2_PLACEMENT_3D('',#490,#400,#401);
#333=AXIS2_PLACEMENT_3D('',#493,#404,#405);
#334=AXIS2_PLACEMENT_3D('',#495,#407,#408);
#335=AXIS2_PLACEMENT_3D('',#497,#410,#411);
#336=AXIS2_PLACEMENT_3D('',#499,#413,#414);
#337=AXIS2_PLACEMENT_3D('',#501,#416,#417);
#338=AXIS2_PLACEMENT_3D('',#503,#419,#420);
#339=AXIS2_PLACEMENT_3D('',#505,#422,#423);
#340=DIRECTION('',(0.,0.,1.));
#341=DIRECTION('',(1.,0.,0.));
#342=DIRECTION('',(0.,0.,1.));
#343=DIRECTION('',(1.,0.,0.));
#344=DIRECTION('',(0.,0.,1.));
#345=DIRECTION('',(1.,0.,0.));
#346=DIRECTION('',(-1.,0.,0.));
#347=DIRECTION('',(0.,1.,0.));
#348=DIRECTION('',(1.,0.,0.));
#349=DIRECTION('',(0.,-1.,0.));
#350=DIRECTION('',(0.,0.,1.));
#351=DIRECTION('',(1.,0.,0.));
#352=DIRECTION('',(0.,0.,1.));
#353=DIRECTION('',(1.,0.,0.));
#354=DIRECTION('',(0.,0.,-1.));
#355=DIRECTION('',(-1.,0.,0.));
#356=DIRECTION('',(0.,-1.,0.));
#357=DIRECTION('',(0.,0.,-1.));
#358=DIRECTION('',(0.,0.,-1.));
#359=DIRECTION('',(-1.,0.,0.));
#360=DIRECTION('',(0.,0.,-1.));
#361=DIRECTION('',(-1.,0.,0.));
#362=DIRECTION('',(0.,0.,1.));
#363=DIRECTION('',(0.,1.,0.));
#364=DIRECTION('',(0.,0.,-1.));
#365=DIRECTION('',(0.,1.,0.));
#366=DIRECTION('',(0.,0.,1.));
#367=DIRECTION('',(1.,0.,0.));
#368=DIRECTION('',(0.,0.,-1.));
#369=DIRECTION('',(1.,0.,0.));
#370=DIRECTION('',(0.,0.,-1.));
#371=DIRECTION('',(0.,-1.,0.));
#372=DIRECTION('',(0.,0.,-1.));
#373=DIRECTION('',(-1.,0.,0.));
#374=DIRECTION('',(0.,0.,-1.));
#375=DIRECTION('',(-1.,0.,0.));
#376=DIRECTION('',(1.,0.,0.));
#377=DIRECTION('',(0.,0.,-1.));
#378=DIRECTION('',(-1.,0.,0.));
#379=DIRECTION('',(0.,-1.,0.));
#380=DIRECTION('',(0.,0.,-1.));
#381=DIRECTION('',(-1.,0.,0.));
#382=DIRECTION('',(-1.,0.,0.));
#383=DIRECTION('',(0.,0.,-1.));
#384=DIRECTION('',(-1.,0.,0.));
#385=DIRECTION('',(0.,1.,0.));
#386=DIRECTION('',(0.,0.,1.));
#387=DIRECTION('',(1.,0.,0.));
#388=DIRECTION('',(0.,0.,1.));
#389=DIRECTION('',(-1.,0.,0.));
#390=DIRECTION('',(0.,1.,0.));
#391=DIRECTION('',(0.,0.,1.));
#392=DIRECTION('',(0.,-1.,0.));
#393=DIRECTION('',(-1.,0.,0.));
#394=DIRECTION('',(0.,0.,1.));
#395=DIRECTION('',(1.,0.,0.));
#396=DIRECTION('',(0.,-1.,0.));
#397=DIRECTION('',(0.,0.,1.));
#398=DIRECTION('',(0.,1.,0.));
#399=DIRECTION('',(1.,0.,0.));
#400=DIRECTION('',(0.,-1.,0.));
#401=DIRECTION('',(0.,0.,-1.));
#402=DIRECTION('',(0.,0.,1.));
#403=DIRECTION('',(0.,0.,1.));
#404=DIRECTION('',(0.,0.,1.));
#405=DIRECTION('',(1.,0.,0.));
#406=DIRECTION('',(0.,0.,1.));
#407=DIRECTION('',(-1.,0.,0.));
#408=DIRECTION('',(0.,0.,1.));
#409=DIRECTION('',(0.,0.,1.));
#410=DIRECTION('',(0.,0.,1.));
#411=DIRECTION('',(1.,0.,0.));
#412=DIRECTION('',(0.,0.,1.));
#413=DIRECTION('',(0.,1.,0.));
#414=DIRECTION('',(0.,0.,1.));
#415=DIRECTION('',(0.,0.,1.));
#416=DIRECTION('',(0.,0.,1.));
#417=DIRECTION('',(1.,0.,0.));
#418=DIRECTION('',(0.,0.,1.));
#419=DIRECTION('',(1.,0.,0.));
#420=DIRECTION('',(0.,0.,-1.));
#421=DIRECTION('',(0.,0.,1.));
#422=DIRECTION('',(0.,0.,1.));
#423=DIRECTION('',(1.,0.,0.));
#424=CARTESIAN_POINT('',(0.,0.,0.));
#425=CARTESIAN_POINT('',(9.5,-9.5,-20.));
#426=CARTESIAN_POINT('',(0.,0.,-20.));
#427=CARTESIAN_POINT('',(6.1,0.,-20.));
#428=CARTESIAN_POINT('',(22.5,-22.5,-20.));
#429=CARTESIAN_POINT('',(22.5,-22.5,-20.));
#430=CARTESIAN_POINT('',(-22.5,-22.5,-20.));
#431=CARTESIAN_POINT('',(-22.5,-22.5,-20.));
#432=CARTESIAN_POINT('',(-22.5,22.5,-20.));
#433=CARTESIAN_POINT('',(-22.5,22.5,-20.));
#434=CARTESIAN_POINT('',(22.5,22.5,-20.));
#435=CARTESIAN_POINT('',(22.5,22.5,-20.));
#436=CARTESIAN_POINT('',(0.,0.,-23.7876563958646));
#437=CARTESIAN_POINT('',(0.,0.,-23.7876563958646));
#438=CARTESIAN_POINT('',(2.10564020226234,0.,-23.7876563958646));
#439=CARTESIAN_POINT('',(0.,0.,-19.7876563958646));
#440=CARTESIAN_POINT('',(22.5,-22.5,-18.5));
#441=CARTESIAN_POINT('',(22.5,-22.5,-18.5));
#442=CARTESIAN_POINT('',(22.5,-22.5,-18.5));
#443=CARTESIAN_POINT('',(22.5,-22.5,-18.5));
#444=CARTESIAN_POINT('',(-22.5,-22.5,-18.5));
#445=CARTESIAN_POINT('',(-22.5,-22.5,-18.5));
#446=CARTESIAN_POINT('',(-22.5,-22.5,-18.5));
#447=CARTESIAN_POINT('',(-22.5,-22.5,-18.5));
#448=CARTESIAN_POINT('',(-22.5,22.5,-18.5));
#449=CARTESIAN_POINT('',(-22.5,22.5,-18.5));
#450=CARTESIAN_POINT('',(-22.5,22.5,-18.5));
#451=CARTESIAN_POINT('',(-22.5,22.5,-18.5));
#452=CARTESIAN_POINT('',(22.5,22.5,-18.5));
#453=CARTESIAN_POINT('',(22.5,22.5,-18.5));
#454=CARTESIAN_POINT('',(22.5,22.5,-18.5));
#455=CARTESIAN_POINT('',(22.5,22.5,-18.5));
#456=CARTESIAN_POINT('',(0.,0.,-18.5));
#457=CARTESIAN_POINT('',(9.5,-9.5,-18.5));
#458=CARTESIAN_POINT('',(7.5,-9.5,-18.5));
#459=CARTESIAN_POINT('',(9.5,-7.5,-18.5));
#460=CARTESIAN_POINT('',(-7.5,-9.5,-18.5));
#461=CARTESIAN_POINT('',(-7.5,-9.5,-18.5));
#462=CARTESIAN_POINT('',(-9.5,-9.5,-18.5));
#463=CARTESIAN_POINT('',(-9.5,-7.5,-18.5));
#464=CARTESIAN_POINT('',(-9.5,7.5,-18.5));
#465=CARTESIAN_POINT('',(-9.5,7.5,-18.5));
#466=CARTESIAN_POINT('',(-9.5,9.5,-18.5));
#467=CARTESIAN_POINT('',(-7.5,9.5,-18.5));
#468=CARTESIAN_POINT('',(7.5,9.5,-18.5));
#469=CARTESIAN_POINT('',(7.5,9.5,-18.5));
#470=CARTESIAN_POINT('',(9.5,9.5,-18.5));
#471=CARTESIAN_POINT('',(9.5,7.5,-18.5));
#472=CARTESIAN_POINT('',(9.5,-7.5,-18.5));
#473=CARTESIAN_POINT('',(9.5,-9.5,0.));
#474=CARTESIAN_POINT('',(9.5,-9.5,0.));
#475=CARTESIAN_POINT('',(7.5,-9.5,0.));
#476=CARTESIAN_POINT('',(9.5,-7.5,0.));
#477=CARTESIAN_POINT('',(9.5,-7.5,0.));
#478=CARTESIAN_POINT('',(9.5,7.5,0.));
#479=CARTESIAN_POINT('',(9.5,9.5,0.));
#480=CARTESIAN_POINT('',(7.5,9.5,0.));
#481=CARTESIAN_POINT('',(7.5,9.5,0.));
#482=CARTESIAN_POINT('',(-7.5,9.5,0.));
#483=CARTESIAN_POINT('',(-9.5,9.5,0.));
#484=CARTESIAN_POINT('',(-9.5,7.5,0.));
#485=CARTESIAN_POINT('',(-9.5,7.5,0.));
#486=CARTESIAN_POINT('',(-9.5,-7.5,0.));
#487=CARTESIAN_POINT('',(-9.5,-9.5,0.));
#488=CARTESIAN_POINT('',(-7.5,-9.5,0.));
#489=CARTESIAN_POINT('',(-7.5,-9.5,0.));
#490=CARTESIAN_POINT('',(-7.5,-9.5,-20.));
#491=CARTESIAN_POINT('',(-7.5,-9.5,-20.));
#492=CARTESIAN_POINT('',(7.5,-9.5,-20.));
#493=CARTESIAN_POINT('',(-9.5,-9.5,-20.));
#494=CARTESIAN_POINT('',(-9.5,-7.5,-20.));
#495=CARTESIAN_POINT('',(-9.5,7.5,-20.));
#496=CARTESIAN_POINT('',(-9.5,7.5,-20.));
#497=CARTESIAN_POINT('',(-9.5,9.5,-20.));
#498=CARTESIAN_POINT('',(-7.5,9.5,-20.));
#499=CARTESIAN_POINT('',(7.5,9.5,-20.));
#500=CARTESIAN_POINT('',(7.5,9.5,-20.));
#501=CARTESIAN_POINT('',(9.5,9.5,-20.));
#502=CARTESIAN_POINT('',(9.5,7.5,-20.));
#503=CARTESIAN_POINT('',(9.5,-7.5,-20.));
#504=CARTESIAN_POINT('',(9.5,-7.5,-20.));
#505=CARTESIAN_POINT('',(9.5,-9.5,-20.));
#506=MECHANICAL_DESIGN_GEOMETRIC_PRESENTATION_REPRESENTATION('',(#301),
#507);
#507=(
GEOMETRIC_REPRESENTATION_CONTEXT(3)
GLOBAL_UNCERTAINTY_ASSIGNED_CONTEXT((#508))
GLOBAL_UNIT_ASSIGNED_CONTEXT((#511,#510,#509))
REPRESENTATION_CONTEXT('SN 9024.1-03 ALB LED RD (102476557)',
'TOP_LEVEL_ASSEMBLY_PART')
);
#508=UNCERTAINTY_MEASURE_WITH_UNIT(LENGTH_MEASURE(0.005),#511,
'DISTANCE_ACCURACY_VALUE','Maximum Tolerance applied to model');
#509=(
NAMED_UNIT(*)
SI_UNIT($,.STERADIAN.)
SOLID_ANGLE_UNIT()
);
#510=(
NAMED_UNIT(*)
PLANE_ANGLE_UNIT()
SI_UNIT($,.RADIAN.)
);
#511=(
LENGTH_UNIT()
NAMED_UNIT(*)
SI_UNIT(.MILLI.,.METRE.)
);
#512=PRODUCT_DEFINITION_SHAPE('','',#513);
#513=PRODUCT_DEFINITION('','',#515,#514);
#514=PRODUCT_DEFINITION_CONTEXT('',#521,'design');
#515=PRODUCT_DEFINITION_FORMATION_WITH_SPECIFIED_SOURCE('','',#517,
 .NOT_KNOWN.);
#516=PRODUCT_RELATED_PRODUCT_CATEGORY('','',(#517));
#517=PRODUCT('SN 9024.1-03 ALB LED RD (102476557)',
'SN 9024.1-03 ALB LED RD (102476557)',
'SN 9024.1-03 ALB LED RD (102476557)',(#519));
#518=PRODUCT_CATEGORY('','');
#519=PRODUCT_CONTEXT('',#521,'mechanical');
#520=APPLICATION_PROTOCOL_DEFINITION('international standard',
'automotive_design',2010,#521);
#521=APPLICATION_CONTEXT(
'core data for automotive mechanical design processes');
ENDSEC;
END-ISO-10303-21;
